Oops, an error
Loading. Please wait.

Córtame Con Unas Tijeras Pero No Se Te Olvide El Resistol Para Volverme A Pegar bass

version 2
version 2

Whole song

Interactive

by Panda
25 views 1 this week
no commentswrite comment
1 2 3 4 5
3 more votes to show rating
add to favorites
×
Save as Personal and add changes to this tab that will be seen only by you. Learn more ›
×
You can save this tab as Personal to edit and correct it or add notes. All changes will be seen only by you. Learn more »
launch autoscroll
font size
0
reset
guitar tuner
edit
Autoscroll
slow
fast
+/-
esc
set tempo
stop
QUE ONDA MORROS AQUI REPORTANDOME CON UNA SONG BIEN MACHIN DE PANDA Y PUES SI LA SAQUE BIEN
Y SI NO PUES CHEKENLA AHHHH Y ARRIBA PANDA,DIVISION MINUSCULA Y TODOS LOS GRUPOS DE PUNK EN ESPAÑOL
AHHHH Y PORSUPUESTO TODAS LAS BANDAS AMERICANAS DE PUNK QUE SON LA INFULENCIA :)

CORTAME CON UNAS TIJERAS PERO NO SE TE OLVIDE EL RESISTOL PARA VOLVERME A PEGAR

INTRO

G--- ------------------------
D--- ------------------------
A--- ---4--2--4--2-4-2-1-0---
E-2- -2--2--2---2------------
  F#
G--------------------------
D--------------------------
A------4444-1-1--2-2-------
E-2222---------------------
   F#    C# 
VERSO: RECUERDAS ESE DIA QUE TE DIJE QUE TE QUERIA...
G--------------------------
D--------------------------
A-----4444-1111-2222-------
E-2222---------------------
   F#  C#   A#   Bm
PRE-CORO: EL TE CAMBIO TAMBIEN...
G--------------------------
D--------------------------
A------1111-2222-4444------
E-4444---------------------
   G#   A#   Bm   C#                

                      SE SIENTE!!!!!
G---------------------------------
D---------------------------------
A-----1111-2222-4444h-16-16-16-16-
E-4444----------------------------
   C#  A#   Bm   C#     C#
CORO (SE TOCA 2 VECES): PORQUE ESTAS TAN SOLA...
G--------------------------
D--------------------------
A------6666-2222-4444------
E-2222---------------------
   F#   D#   Bm   C#
G------------------------------
D------------------------------
A------6666-2222-1-1-2-1-1-4---
E-2222-------------------------
   Bm   D#   Bm  
INTRO X1
VERSO X1

CUANDO CANTA POR SEGUNDA VEZ:
'PERO TU TE FUISTE CON AQUEL PELADO QUE A FIN DE CUENTAS ELLA TE HIZO UN LADO' 
VA ESTO:
G--------------------------
D--------------------------
A-----4--4--1-1--2---------
E-2-2----------------------

PRECORO X2
CORO X 2

INTERLUDE
G--------------------------
D--------------------------
A-------2h4----------------
E-22222--------------------
   F#
INTROX1
COROX2
 
Y YA ES TODO!!!!!!! SI ESTA MAL PS NO MAS ME AVISAN A MI MAIL VA????

            
            
Suggest correction
Creating personal tab
Creating personal tab
You can edit any tab online and save it as your Personal.

You can edit, replace or remove any tab part or add personal notes – all changes will be seen only by you.

Personal tabs can be accessed anytime from any device, even offline.
Learn more »
Give kudos to tab author, rate the tab!
1 2 3 4 5
comments
print report bad tab
guest
Wanna post a correction for this tab? Suggest correction