Oops, an error
Loading. Please wait.

Espíritu Pionero bass

version 3
version 3

Whole song

Interactive

by Panda
25 views 1 this week
no commentswrite comment
1 2 3 4 5
3 more votes to show rating
add to favorites
×
Save as Personal and add changes to this tab that will be seen only by you. Learn more ›
×
You can save this tab as Personal to edit and correct it or add notes. All changes will be seen only by you. Learn more »
launch autoscroll
font size
0
reset
guitar tuner
edit
Autoscroll
slow
fast
+/-
esc
set tempo
stop
Author
Unregistered
Hola nuevo ps aqi volviendo a dejar una rola
de panda q ps para mi es la mas chida en bajo
del disco bueno ps disfrutenla y ojala tenga
todos los cuadritos verdes asi q a tokr.....

AFINACION: BEMOL

F#
C#
G#
D#

Intro:

F#-----------------------------------------------------------
C#----------------------------------------------4-----2------
G#5-55-555/17-1717-171717/-0-454-00-454-0---4-----------542-0
D#----------------------------------------2---2---2-0--------

F#---------------------------------------------
C#--------------------4-----2------------------
G#-454-00-454-0---4-----------5-4-2-0*---------
D#-------------2----2---2-0--------------------


Verso:  "Que paso...."

F#---------------------------------------------
C#--------------------4-----2------------------
G#-454-00-454-0---4-----------5-4-2-0----------
D#-------------2----2---2-0--------------------

F#---------------------------------------------
C#--------------------4-----2------------------
G#-454-00-454-0---4-----------5-4-0-2----------
D#-------------2----2---2-0--------------------

"Y sin embargo....."

F#-----------------------
C#-4---4------9---9------ x2
G#---2---2-7----7---7-2--
D#-----------------------

F#--------------------------------------------
C#-4---4------9---9---------------------------
G#---2---2-7----7---7-5-55-555/17-1717-171717-
D#--------------------------------------------

"Abigail..."

F#---------------------------------------------
C#--------------------4-----2------------------
G#-454-00-454-0---4-----------5-4-2-0----------
D#-------------2----2---2-0--------------------

F#---------------------------------------------
C#--------------------4-----2------------------
G#-454-00-454-0---4-----------5-4-0-2----------
D#-------------2----2---2-0--------------------

"Me arruinaste el momento..."

F#-----------------------
C#-4---4------9---9------ x2
G#---2---2-7----7---7-2--
D#-----------------------

F#--------------------------------------------
C#-4---4------9---9---------------------------
G#---2---2-7----7---7-5-55-555/12-1212-121212-
D#--------------------------------------------

CORO: "Muy original...."

F#--------------------------
C#----7---7-------11---11---  x2
G#5-5---5---5-9-9----9----9-
D#--------------------------

F#-----------------------------------------------
C#----7---7-------9---9--------------------------
G#5-5---5---5-7-7---7---7-5-55-555/12-1212-1212--
D#-----------------------------------------------

Se repite la segunda parte del intro...

F#----------------------------------------------
C#---------------------4-----2------------------
G#0-454-00-454-0---4-----------5-4-2-0----------
D#--------------2----2---2-0--------------------

F#---------------------------------------------
C#--------------------4-----2------------------
G#-454-00-454-0---4-----------5-4-2-0----------
D#-------------2----2---2-0--------------------

"Eso es...."

F#---------------------------------------------
C#--------------------4-----2------------------
G#-454-00-454-0---4-----------5-4-2-0----------
D#-------------2----2---2-0--------------------

F#---------------------------------------------
C#--------------------4-----2------------------
G#-454-00-454-0---4-----------5-4-0-2----------
D#-------------2----2---2-0--------------------

"Ahora tendran que..."

F#-----------------------
C#-4---4------9---9------ x2
G#---2---2-7----7---7-2--
D#-----------------------

F#--------------------------------------------
C#-4---4------9---9---------------------------
G#---2---2-7----7---7-5-55-555/12-1212-121212-
D#--------------------------------------------


CORO:  "Muy original...."

F#--------------------------
C#----7---7-------11---11---  x2
G#5-5---5---5-9-9----9----9-
D#--------------------------

F#-----------------------------------------------
C#----7---7-------9---9--------------------------
G#5-5---5---5-7-7---7---7-5-55-555/12-1212-1212--
D#-----------------------------------------------

"Muy original que tal..."

F#--------------------------
C#----7---7-------11---11---  x2
G#5-5---5---5-9-9----9----9-
D#--------------------------

F#-----------------------------------------------
C#----7---7-------9---9--------------------------
G#5-5---5---5-7-7---7---7-5-55-555/12*-----------
D#-----------------------------------------------

              FIN

* = a dejar sonando

Esta sencilla la kncion pueden sakrla bueno disfrutenla y
te amo brenda nunk dejare de acerlo
asta la proxima.......

            
            
Suggest correction
Creating personal tab
Creating personal tab
You can edit any tab online and save it as your Personal.

You can edit, replace or remove any tab part or add personal notes – all changes will be seen only by you.

Personal tabs can be accessed anytime from any device, even offline.
Learn more »
Give kudos to tab author, rate the tab!
1 2 3 4 5
comments
print report bad tab
guest
Wanna post a correction for this tab? Suggest correction