Oops, an error
Loading. Please wait.

Estoy Más Solo Que Ayer Pero Menos Que Mañana tab

version 4
version 4

Whole song

Interactive

by Panda
55 views 1 this week
no commentswrite comment
1 2 3 4 5
3 more votes to show rating
add to favorites
×
Save as Personal and add changes to this tab that will be seen only by you. Learn more ›
×
You can save this tab as Personal to edit and correct it or add notes. All changes will be seen only by you. Learn more »
launch autoscroll
font size
0
reset
how to read this tab
guitar tuner
edit
Autoscroll
slow
fast
+/-
esc
set tempo
stop
Author
Unregistered
Hola pues aka stoy d nuevo ps esta ves les traigo
esta rola q esta super y, ps muy facil sale ps
disfrutenla:

Afinacion :bemos 1/2 tono abajo

Intro:

Lira 2 (pepe)
E|----------------------------------|
B|-6-7-6-7-6-7-6-7-6-6-6-7-7-6-6-6--|
G|----------------------------------|
D|----------------------------------| X 2
A|-6-6-6-6--------------------------|
E|---------6-6-6-6-7-7-7-7-7-7-7-7--|

Lira 2 (pepe)

E|---------------------------------------------|
B|-----------------------4-4-4-4-4--6-6-6-6-6--|
G|-8-8-8-8-8-------------4-4-4-4-4--6-6-6-6-6--|
D|-8-8-8-8-8--4-4-4-4-4--2-2-2-2-2--4-4-4-4-4--| X 4
A|-6-6-6-6-6--4-4-4-4-4------------------------|
E|------------2-2-2-2-2------------------------|

Lira 1 (r2d2)

E|---------------------------------------------|
B|-7-7-7-7-6-4-4-4-4-2-----------4---4--4---6--|
G|---------------------4-4-4-4-6---6---6--6----|
D|---------------------------------------------| X 2
A|---------------------------------------------|
E|---------------------------------------------|

Lira 1 (r2d2)

E|-------------------------------------------------|
B|-11-11-11-11-9-7-7-7-7-6-4-4-4-4-6-7-6-7-6-7-6-9-|
G|-------------------------------------------------|
D|-------------------------------------------------| X 2
A|-------------------------------------------------|
E|-------------------------------------------------|

Lira 2 (pepe)

E|----------------------------------|
B|-6-7-6-7-6-7-6-7-6-6-6-7-7-6-6-6--|
G|----------------------------------|
D|----------------------------------| X 4
A|-6-6-6-6--------------------------|
E|---------6-6-6-6-7-7-7-7-7-7-7-7--|

Lira 2 (r2d2)

E|-----6-------6-------7-------7-------6-----6--------7------7--|
B|-4-4---4-------------------------4-4--------------------------|
G|---------3-3---3-4-4---4-4-4--4--------3-3---3--4-4--4-4-4--4-|
D|--------------------------------------------------------------|
A|--------------------------------------------------------------| x2
E|--------------------------------------------------------------|

Lira 1 y 2

E|---------|
B|---4-6---|
G|-8-4-6---|
D|-8-2-4---|
A|-6-------|
E|---------|

Liras 1 y 2

E|---------------------------------------------|
B|-----------------------4-4-4-4-4--6-6-6-6-6--|
G|-8-8-8-8-8-------------4-4-4-4-4--6-6-6-6-6--|
D|-8-8-8-8-8--4-4-4-4-4--2-2-2-2-2--4-4-4-4-4--| X 2
A|-6-6-6-6-6--4-4-4-4-4------------------------|
E|------------2-2-2-2-2------------------------|

Lira 2 (pepe)

E|----------------------------------|
B|-6-7-6-7-6-7-6-7-6-6-6-7-7-6-6-6--|
G|----------------------------------|
D|----------------------------------| X 4
A|-6-6-6-6--------------------------|
E|---------6-6-6-6-7-7-7-7-7-7-7-7--|

Lira 2 (r2d2)

E|-----6-------6-------7-------7-------6-----6--------7------7--|
B|-4-4---4-------------------------4-4--------------------------|
G|---------3-3---3-4-4---4-4-4--4--------3-3---3--4-4--4-4-4--4-|
D|--------------------------------------------------------------|
A|--------------------------------------------------------------| x2
E|--------------------------------------------------------------|

Lira 1 y 2

E|---------|
B|---4-6---|
G|-8-4-6---|
D|-8-2-4---|
A|-6-------|
E|---------|

Liras 1 y 2

E|---------------------------------------------|
B|-----------------------4-4-4-4-4--6-6-6-6-6--|
G|-8-8-8-8-8-------------4-4-4-4-4--6-6-6-6-6--|
D|-8-8-8-8-8--4-4-4-4-4--2-2-2-2-2--4-4-4-4-4--| X 2
A|-6-6-6-6-6--4-4-4-4-4------------------------|
E|------------2-2-2-2-2------------------------|

Intermedio: Bateria y Bajo

Lira 2 (r2d2)

E|-----6-------6-------7-------7-------6-----6--------7------7--|
B|-4-4---4-------------------------4-4--------------------------|
G|---------3-3---3-4-4---4-4-4--4--------3-3---3--4-4--4-4-4--4-|
D|--------------------------------------------------------------|
A|--------------------------------------------------------------| x4
E|--------------------------------------------------------------|

Lira 1 y 2

E|------|
B|------|
G|--8---|
D|--8---|
A|--6---|
E|------|

Liras 1 y 2

E|---------------------------------------------|
B|-----------------------4-4-4-4-4--6-6-6-6-6--|
G|-8-8-8-8-8-------------4-4-4-4-4--6-6-6-6-6--|
D|-8-8-8-8-8--4-4-4-4-4--2-2-2-2-2--4-4-4-4-4--| X 4
A|-6-6-6-6-6--4-4-4-4-4------------------------|
E|------------2-2-2-2-2------------------------|

Final:

Liras 1 y 2

E|---------------|
B|---------------|
G|-8-8-8-8-8-----|
D|-8-8-8-8-8-----| X 2
A|-6-6-6-6-6-----|
E|---------------|

Pues, eso es todo
neta esta
bien facil
y
ps
esta practicamente 100% correcta
si tienen alguna duda solo
mandende un mail
y para los tiempos solo escuchen la rola
ps
eso es todos
saludos a puebla
y no c olviden d votar
graciass....

            
            
Suggest correction
Creating personal tab
Creating personal tab
You can edit any tab online and save it as your Personal.

You can edit, replace or remove any tab part or add personal notes – all changes will be seen only by you.

Personal tabs can be accessed anytime from any device, even offline.
Learn more »
Give kudos to tab author, rate the tab!
1 2 3 4 5
comments
print report bad tab
guest
Wanna post a correction for this tab? Suggest correction