Oops, an error
Loading. Please wait.

Feliz Cumpleaños bass

version 1
version 1

Whole song

Interactive

by Panda
219 views 1 this week
no commentswrite comment
1 2 3 4 5
3 more votes to show rating
add to favorites
×
Save as Personal and add changes to this tab that will be seen only by you. Learn more ›
×
You can save this tab as Personal to edit and correct it or add notes. All changes will be seen only by you. Learn more »
launch autoscroll
font size
0
reset
guitar tuner
edit
Autoscroll
slow
fast
+/-
esc
set tempo
stop
Hola, bueno aquí les dejo esta canción, es la versión corregida,
espero que les guste. Califiquen, no cuesta nada.

Panda- Feliz cumpleaños.

Intro:
G)-------------------------------------|
D)-------------------------------------|
A)---4-5-4--2-0------------------------| X4
E)-0------------4-5-4-2-0--------------|

Verso: ?Feliz cumpleaños??
G)----------|
D)----------|
A)-2/9------| X4
E)-----4-5--|

G)----------|
D)----------|
A)-2/9-0----|
E)-------7--|

Intro:

G)-------------------------------------|
D)-------------------------------------|
A)---4-5-4--2-0------------------------|
E)-0------------4-5-4-2-0--------------|

Verso: ?Hasta ser muy ancianos te celebrare??
G)----------|
D)----------|
A)-2/9------|X3
E)-----4-5--|

G)----------|
D)----------|
A)-2/9-0----|
E)-------7--|

Coro: ?Yo no te comprare solo una rosa, toda la florería??
G)------------------------------------------|
D)-----------------------------12-14--------|
A)-----------------444-11-12-11-----11-12-11|X2
E)-5555555-7777777--------------------------|


G)-------------------------------------
D)-------------------------------------
A)-------------------------------------
E)-5555555-7777777---------------------


Intro:

G)-------------------------------------|
D)-------------------------------------|
A)---4-5-4--2-0------------------------| X3
E)-0------------4-5-4-2-0--------------|

G)-------------------------------------|
D)-------------------------------------|
A)---4-5-4--2-0---------2--------------|
E)-0------------4-5-4-0----------------|


----------------------Silencio------------------


Verso: ?Feliz cumpleaños me quito en bombín??


G)-------------------------------------|
D)-------------------------------------|
A)-------------------------------------|X3
E)-9-9-9-9-4-44-5-55-------------------|


G)-------------------------------------
D)-------------------------------------
A)-------------------------------------
E)9-9-9-9-7-7-7-7-7-7------------------

Coro: ?Yo no te comprare??


G)------------------------------------------|
D)-----------------------------12-14--------|
A)-----------------444-11-12-11-----11-12-11|X4
E)-5555555-7777777--------------------------|

G)-----------------
D)-----------------
A)-----------------
E)-5555555-7777777-

G)------------------------------------------|
D)-----------------------------12-14--------|
A)-----------------444-11-12-11-----11-12-11|X2
E)-5555555-7777777--------------------------|

?Wooo oh oh??
G)-------------------------------------|
D)-------------------------------------|
A)-------------------------------------|X2
E)?5555555-7777777-4444444-999-777-----|


?Mas no puedo desde acá??
G)-------------------------------------
D)-------------------------------------
A)-------------------------------------
E)?555555-7777777-0--------------------


Fin, esto es todo, esta súper sencilla.
Y es una buena canción para tocarla en un cumple años.
Solo practicarla y listo. Espero haberlos ayudado.
Si no entienden algo escríbanme al Twitter @EscuchemosRock.
Allí consultare todas sus dudas. ¡Saludos!
Suggest correction
Creating personal tab
Creating personal tab
You can edit any tab online and save it as your Personal.

You can edit, replace or remove any tab part or add personal notes – all changes will be seen only by you.

Personal tabs can be accessed anytime from any device, even offline.
Learn more »
Give kudos to tab author, rate the tab!
1 2 3 4 5
comments
print report bad tab
guest
Wanna post a correction for this tab? Suggest correction