Oops, an error
Loading. Please wait.

Feliz Cumpleaños tab

version 1
version 1

Whole song

Interactive

by Panda
437 views 1 this week
no commentswrite comment
1 2 3 4 5
3 more votes to show rating
add to favorites
×
Save as Personal and add changes to this tab that will be seen only by you. Learn more ›
×
You can save this tab as Personal to edit and correct it or add notes. All changes will be seen only by you. Learn more »
launch autoscroll
font size
0
reset
how to read this tab
guitar tuner
edit
Autoscroll
slow
fast
+/-
esc
set tempo
stop
 C#                 F    <= PEPE

ARTUR
|-----------------------------------------|
|-----------------------------------------|
|--5-6-5-3-1------------------------------|
|------------3-4-3-1----------------------|
|--------------------4--------------------|
|-----------------------------------------|

A#m           Fm             F#
Feliz cumpleaños, no puedo estar ahi
 A#m           Fm             F#
En cuerpo pero en espiritu si
  A#m        Fm         F#
Mi lugar ocupado esta ahora
         A#m                G#
¡No importa, tendrás muchos cumples mas!

 C#                 F    <= PEPE
ARTUR
|-----------------------------------------|
|-----------------------------------------|
|--5-6-5-3-1------------------------------|
|------------3-4-3-1----------------------|
|--------------------4--------------------|
|-----------------------------------------|

A#m           Fm             F#
Hasta ser ancianos te celebrare
A#m           Fm             F#
No me ire de tu lado, moriremos despues
A#m           Fm             F#
De que juntos lleguemos a la conclusión
A#m            G#
Que ya es hora de partir

F#              G#        Fm                 A#m G#
Yo no te comprare solo una rosa toda la floreria
F#            G#             F#m             A#m G#
Yo te recitare aquel poema que no existe todavia
F#          G#       C#
Mas no puedo desde acá

 C#                F     <= PEPE

ARTUR
|-----------------------------------------|
|-----------------------------------------|
|--5-6-5-3-1------------------------------|
|------------3-4-3-1----------------------|
|--------------------4--------------------|
|-----------------------------------------|
(estos acordes de aca arriba son casi continuos para sacar
la tonada del medio y se repiten X2)

A#m           Fm      F#        A#m
¡Feliz cumpleaños, aún huele a ti!
             Fm        F#      A#m
Ese dia de otoño que ahora es gris
               Fm    F#         A#m                   G#
Pues no tengo manera para regresarle el color a esta obscuridad

A#m         Fm      F#           A#m
Feliz cumpleaños, me quito el bombín
            Fm       F#      A#m
Con todo respeto te deseo a ti
                Fm      F#       A#m
Nunca nadie podrá festejarte jamás
                G#
Como yo lo haria acá

F#              G#        Fm                 A#m G#
Yo no te comprare solo una rosa toda la floreria
F#            G#             F#m             A#m G#
Yo te recitare aquel poema que no existe todavia
F#           G#                  Fm                 A#m  G#
¡Si pásala bien! Mas no se te olvide es un dia cualquiera
     F#            G#     Fm            A#m G#
Pues yo te celebrare los 365 hasta que muera
F#       G#
Mas no puedo  desde acá

F#      G#       Fm       A#m     G#
F#      G#       Fm       A#m     G#


F#     G#        Fm       A#m    G#
Ohhhhh oh oh ohh oh oh oh oh oh oh!
F#     G#        Fm       A#m    G#
Ohhhhh oh oh ohh oh oh oh oh oh oh!

F#       G#           C#
¡Yo no puedo desde aca!
                      C#
e|------------------------|
B|------------------------|
G|--5-6-5-3-1-------------|
D|------------3-4-3-1-----|
A|--------------------4---|
Suggest correction
Creating personal tab
Creating personal tab
You can edit any tab online and save it as your Personal.

You can edit, replace or remove any tab part or add personal notes – all changes will be seen only by you.

Personal tabs can be accessed anytime from any device, even offline.
Learn more »
Give kudos to tab author, rate the tab!
1 2 3 4 5
comments
print report bad tab
guest
Wanna post a correction for this tab? Suggest correction