Oops, an error
Loading. Please wait.

Feliz Cumpleaños bass

version 2
version 2

Whole song

Interactive

by Panda
206 views 3 this week
no commentswrite comment
1 2 3 4 5
3 more votes to show rating
add to favorites
×
Save as Personal and add changes to this tab that will be seen only by you. Learn more ›
×
You can save this tab as Personal to edit and correct it or add notes. All changes will be seen only by you. Learn more »
launch autoscroll
font size
0
reset
guitar tuner
edit
Autoscroll
slow
fast
+/-
esc
set tempo
stop
ola de nuevo..
esta version es la oficial i la q me dio mi oido....
esta a su criterio....

AFINACION:  BeMOL

F#)
C#)
G#)
D#)

* = dejar sonando

INTRO:

F#)-----------------------------------------------
C#)-----------------------------------------------
G#)-5--4-5-4------------7-5--4-5-4------------4-5-
D#)----------7-5--2-3-2------------7-5--2-3-2-----

F#)-----------------------------------------------
C#)-----------------------------------------------
G#)-4-5-4-------------7-5--4-5-4------------------
D#)--------7-5--2-3-2-------------7-5--2-3-2-5-7--

VERSO:

"Feliz Cumpleaños...."

F#)-------------------
C#)-------------------
G#)----9/------------- x4
D#)-7-----2-22-3-33-7-

F#)-------------------
C#)-------------------
G#)---9/--------------
D#)-7----5-5/12-9-----

se repite la parte final del intro

F#)--------------------------
C#)--------------------------
G#)-5--4-5-4-----------------
D#)----------7-5--2-3-2-5-7--

"Hasta ser ancianos t celebrare...."

F#)-------------------
C#)-------------------
G#)----9/------------- x4
D#)-7-----2-22-3-33-7-

F#)-------------------
C#)-------------------
G#)---9/--------------
D#)-7----5-5/12/------

CORO:

"Io, no t comprare solo una rosa...."

F#)------------------------------------------------------------
C#)---------------------------4-4444--11h12-11-------11h12-----
G#)--------------------------------------------12-14--------12- x2
D#)-3-33333-3333-5-55555-5555----------------------------------


F#)----------------------------
C#)----------------------------
G#)----------------------------
D#)-3-33333-3333-5-55555-55555-

Se repite intro

F#)-----------------------------------------------
C#)-----------------------------------------------
G#)-5--4-5-4------------7-5--4-5-4------------4-5-
D#)----------7-5--2-3-2------------7-5--2-3-2-----

F#)-----------------------------------------------
C#)-----------------------------------------------
G#)-4-5-4-------------7-5--4-5-4------------------
D#)--------7-5--2-3-2-------------7-5--2-3-2-5-7*-

"Feliz cumpleaños, aun........"

-----------------------------SILENCIO--------------------

"Feliz cumpleaños, me quito el bombin..."

F#)-----------------------------------------------------------
C#)-----------------------------------------------------------
G#)-----------------------------------------------------------
D#)-7-7-7-7--2-22-3-33-7-7-7-7/--2-22-3-33-7-7-7-7-2-22-3-33--

F#)------------------------------
C#)------------------------------
G#)---------9-99------7---7/-----
D#)-7-7-7-7------5-55---5--------

CORO:

"Io, no t comprare solo una rosa...."

F#)--------------------------------------------------------------
C#)---------------------------4-4444--11h12-11-------11h12-11----
G#)--------------------------------------------12-14----------12- x2
D#)-3-33333-3333-5-55555-5555------------------------------------

CAMBIO DE RITMO

"si pasala bn..."

F#)--------------------------------------------------------------
C#)--------------------------------11h12-11--------11h12-11-----
G#)-------------------------9-9-9------------12-14-----------12-
D#)-3-3-3-3-3-3-5-5-5-5-5-5--------------------------------------

F#)--------------------------------------------------------------
C#)-------------------------4-4-4---11h12-11-------11h12-11-----
G#)------------------------------------------12-14-----------12-
D#)-3-3-3-3-3-3-5-5-5-5-5-5--------------------------------------

....."Mas no puedo desde...."

F#)-----------------------------
C#)-----------------------------
G#)-----------------------------
D#)-3-33333-3333-5-55555-5555---

se repite lo mismo.. solo kmbia la forma...si gustas... puedes
acerlo de la misma manera q los coros anterioes...(a tu criterio)

F#)------------------------------------------------------
C#)------------------------------------------------------
G#)---------------------------------4h5-4------4h4-4-----
D#)-3-3333-3333-5-5555-5555-2-2222---------5-7--------7--

F#)------------------------------------------------------
C#)------------------------------------------------------
G#)---------------------------------4h5-4------4h4-4-----
D#)-3-3333-3333-5-5555-5555-2-2222---------5-7--------7--

"uho ho-ho-ho,ho-ho-ho...."

F#)--------------------------------------------------------
C#)-------------------------4-4-4---11h12-11---------------
G#)------------------------------------------12-14*----12*- x2
D#)-3-3-3-3-3-3-5-5-5-5-5-5--------------------------------

"Mas no puedo desde aca...."

F#)----------------------------7--
C#)----------------------------0--
G#)----------------------------5--
D#)3-33333-3333-5-55555-55555-----

-***pueden trminarla asi en acorde de C# o en alguno de los
trastes q ia estan markdos-****---

eso es todo...califiqn nada les cuesta... qiero ver q les parecio
mi tab...

david ayala.... desde toluk... adios

esto va para ti.. bren te amoooooooo...
grax por toda la felicidad q me as dado... todo esto es para ti
i siempre asi lo sera te amoooo bren.... grax
por aver llegado a mi vida....
dvd y bren.... q todos se enteren...
t amoooooooooooooooooo....
Suggest correction
Creating personal tab
Creating personal tab
You can edit any tab online and save it as your Personal.

You can edit, replace or remove any tab part or add personal notes – all changes will be seen only by you.

Personal tabs can be accessed anytime from any device, even offline.
Learn more »
Give kudos to tab author, rate the tab!
1 2 3 4 5
comments
print report bad tab
guest
Wanna post a correction for this tab? Suggest correction