Oops, an error
Loading. Please wait.

Miércoles bass

by Panda
20 views 1 this week
no commentswrite comment
1 2 3 4 5
3 more votes to show rating
add to favorites
×
Save as Personal and add changes to this tab that will be seen only by you. Learn more ›
×
You can save this tab as Personal to edit and correct it or add notes. All changes will be seen only by you. Learn more »
launch autoscroll
font size
0
reset
guitar tuner
edit
Autoscroll
slow
fast
+/-
esc
set tempo
stop
G---------------------------------------------------
D---------------------------------------------------
A---------------------------------------------------
E?44---------------------------------------------

INICIO:
Cuentas lo que nos paso y lo que sucedió.

G------------------------------------------------
D------------------------------------------------
A-------6----333-44?3-4-----6--------------------
E---44-----4------------------44-----------------

Cuentas muchas cosas no te va a creer ni dios.

G-------------------------------------------
D-------------------------------------------
A-----6----333-44-3-4?6666666---------------
E-44----4-----------------------------------


Parte 3.
G--------------------------------------------
D--------------------------------------------
A----4444?3333?1111?3?1----------------------
E------------------------4-------------------

Coro:

G------------------------------------------------
D------------------------------------------------  X4
A---44444---------6666---------------------------
E------------44444-------4444--------------------
 

Parte metalera?.

G-----------------------------------------------------
D-----------------------------------------------------
A-----------------------------------------------------
E?2222?222?4444-5-4?2222-2222-0000

Aquí les dejo esta cancion de panda esta fregona pero esta medio difícil 
Esta es  un mp3 que encontre en internet versión diferente a el disco arroz con leche 
Lo unico que cambia es la parte ska pero es muy similar osea que no hay pedo 
La cancion es correcta .
SERGIO.
Suggest correction
Creating personal tab
Creating personal tab
You can edit any tab online and save it as your Personal.

You can edit, replace or remove any tab part or add personal notes – all changes will be seen only by you.

Personal tabs can be accessed anytime from any device, even offline.
Learn more »
Give kudos to tab author, rate the tab!
1 2 3 4 5
comments
print report bad tab
guest
Wanna post a correction for this tab? Suggest correction