Oops, an error
Loading. Please wait.

Miércoles tab

version 3
version 3

Whole song

by Panda
31 views 1 this week
no commentswrite comment
1 2 3 4 5
3 more votes to show rating
add to favorites
×
Save as Personal and add changes to this tab that will be seen only by you. Learn more ›
×
You can save this tab as Personal to edit and correct it or add notes. All changes will be seen only by you. Learn more »
launch autoscroll
font size
0
reset
how to read this tab
guitar tuner
edit
Autoscroll
slow
fast
+/-
esc
set tempo
stop
HOlA Ps AkI LeS DeJo eStE TaB eSPeRo kE LeS sIrVa:


      G#    Cm    C#    D#          <-----
e||--4-4-|-3-3-|-4-4-|-6-6-||             |
b||--4-4-|-4-4-|-6-6-|-8-8-||             |
g||--5-5-|-5-5-|-6-6-|-8-8-||             |
D||--6-6-|-5-5-|-6-6-|-8-8-||             |
A||--6-6-|-3-3-|-4-4-|-6-6-||             |
E||--4-4-|-3-3-|-4-4-|-6-6-||             |
                                          |  bueno ps todo esto es el verso
      G#   Cm     C#   D#    riff         |  el ritmo es ska osea ke los
e||--4-4-|-3-3-|-4-4-|-6--|------||       |  rasgueos seran hacia arriba
b||--4-4-|-4-4-|-6-6-|-8--|-8-8-8||       |- el riff se toka dandole
g||--5-5-|-5-5-|-6-6-|-8--|-8-8-8||       |  mas velocidad a la pua claro
D||--6-6-|-5-5-|-6-6-|-8--|-8-8-8||       |  aki el ritmo ia no es ska...
A||--6-6-|-3-3-|-4-4-|-6--|------||       |  seria mejor si escucharan la
E||--4-4-|-3-3-|-4-4-|-6--|------||       |  rola para ke me entiendan
                                          |
e||---------------------------||          |
B||---------------------------||          |
G||-6666-5555-33-5-3----------||          |
D||-6666-5555-33-5-3-6--------||      <----
A||-4444-3333-11-3-1-6--------||
E||------------------4--------||

  Verso otra vez.

  Coro x4:
e||----------------------------------||
b||----------------------------------||
g||-6666-5555-3333-------------------||
D||-6666-5555-3333-6666--------------||
A||-4444-3333-1111-6666--------------||
E||----------------4444--------------||

  Verso otra vez.


Al final del coro:(X 4)
e||----------------------------------------||
b||----------------------------------------||
g||----------------------------------------||
D||--4-4-x-x-x-x-4-4-x-x-x-x-6/7/6---------||
A||--4-4-x-x-x-x-4-4-x-x-x-x-6/7/6---------||
E||--2-2-x-x-x-x-2-2-x-x-x-x-4/5/4---------||

e||--------------------------------------------------||
b||--------------------------------------------------||
g||--------------------------------------------------||
D||--4-4-x-x-x-x-4-4-x-x-x-x-2-2---------------------||
A||--4-4-x-x-x-x-4-4-x-x-x-x-2-2---------------------||
E||--2-2-x-x-x-x-2-2-x-x-x-x-0-0---------------------||

Post Coro x4:(es miercoles, ponte feliz)
e||--------------------------------------------------||
b||--------------------------------------------------||
g||---6-6-6-6-5-5-5-5--3-3-5-3-----------------------||
D||---4-4-4-4-3-3-3-3--3-3-5-3-----------------------||
A||---4-4-4-4-3-3-3-3--1-1-5-1-----------------------||
E||--------------------------------------------------||
La parte de la guitarra acustica:
e||------|-----|-----|---------||
b||------|-----|-----|---------||  esta parte
g||---6--|--5--|--3--|---------||     X4
D||--6-6-|-5-5-|-3-3-|--6------||
A||--4---|-3---|-1---|-6-6-----||
E||------|-----|-----|-4-------||

Abre tus ojos, mira al cielo.
e||----------------------------------||
b||----------------------------------||
g||-6666-5555-3333-------------------||
D||-6666-5555-3333-6666--------------||
A||-4444-3333-1111-6666--------------||
E||----------------4444--------------||

Final:
e||-------------------------------------------||
b||-------------------------------------------||
g||-------------------------------------------||
D||--4-4-x-x-x-x-4-4-x-x-x-x-6/7/6------------||
A||--4-4-x-x-x-x-4-4-x-x-x-x-6/7/6------------||
E||--2-2-x-x-x-x-2-2-x-x-x-x-4/5/4------------||

e||-----------------------------------------||
b||-----------------------------------------||
g||-----------------------------------------||
D||--4-4-x-x-x-x-4-4------------------------||
A||--4-4-x-x-x-x-4-4------------------------||
E||--2-2-x-x-x-x-2-2------------------------||

bueno eso es todo echenle ganas jeje :D

            
            
Suggest correction
Creating personal tab
Creating personal tab
You can edit any tab online and save it as your Personal.

You can edit, replace or remove any tab part or add personal notes – all changes will be seen only by you.

Personal tabs can be accessed anytime from any device, even offline.
Learn more »
Give kudos to tab author, rate the tab!
1 2 3 4 5
comments
print report bad tab
guest
Wanna post a correction for this tab? Suggest correction