Oops, an error
Loading. Please wait.

Nuestra Aflicción tab

version 6
version 6
by Panda
43 views 1 this week
no commentswrite comment
1 2 3 4 5
3 more votes to show rating
add to favorites
×
Save as Personal and add changes to this tab that will be seen only by you. Learn more ›
×
You can save this tab as Personal to edit and correct it or add notes. All changes will be seen only by you. Learn more »
launch autoscroll
font size
0
reset
how to read this tab
guitar tuner
edit
Autoscroll
slow
fast
+/-
esc
set tempo
stop
k 0nda!!
sta es para mi la una d las mexores kanciones del disko
aki esta la tablatura estoi 1000% segu0 d k esta bien
me tarde k0mo 6 horas en sakarla... kalifiken :)

las guitarras deben estar afinadas en bemol y en los versos la
guitarra acustica lleva capo en el segundo traste(importante)

Verso
Guitarra acústica (3 veces y en la tercera cambia de rasgueo)
    D   A   Bm   G    Em  A   Em  G  A
   (E) (B)(C#m) (A) (F#m)(B)(F#m)(A)(B) -> con el capo
eb|-4-|-2-|-4-|-5---|-2-|-2-|-2-|-5--2-|
Bb|-5-|-4-|-5-|-5---|-2-|-4-|-2-|-5--4-|
Gb|-4-|-4-|-6-|-2---|-2-|-4-|-2-|-2--4-|
Db|-2-|-4-|-6-|-2---|-4-|-4-|-4-|-2--4-|
Ab|-2-|-2-|-4-|-4---|-4-|-2-|-4-|-4--2-|
Eb|-2-|-2-|-4-|-5-5-|-2-|-2-|-2-|-5--2-|

 D                      A                  Bm
Cuanto... cuanto se necesita, para ya resolver,
                 G                         Em
destruir este dilema, que me torura en las noches,
              A                   Em                 G      A
no me deja soñar, amplifica mis temores, simple o caval-a-a-al.
 D                       A                    Bm
Encerre y acabe con mis sueños, y la llave arroje,
                 G                      Em
para que los necesito, solo me causan angustia,
                  A                    Em               G      A
me hace falta un plan, me hace falta astucia, y paz mental-a-a-al.
 D                        A                 Bm
Siento... el rechazo del mundo, tu repudio amor,
                      G                          Em
pues igual si me conociera, tal vez voltearía mi cara,
                  A                         Em
tal vez sentiría lastima, dicen que el amor mancha,
              G      A
y ya me ensucie-e-e-eee.

Coro
Guitarra eléctrica (la acústica con las mismas notas del verso)
Parece... si parece... oh no, que lo mucho que ofrezco, no ofrece tanto
eb|-------------------------------------------------------------------|
Bb|-------------------------------------------------------------------|
Gb|-99999999----------6-6-6-6-6-6-6-6-6-6-6-6-------------------------|
Db|-99999999-99999999-6-6-6-6-6-6-6-6-6-6-6-6-7-7-7-7-7-7-7-7-7-7-7-7-|
Ab|-77777777-99999999-4-4-4-4-4-4-4-4-4-4-4-4-7-7-7-7-7-7-7-7-7-7-7-7-|
Eb|----------77777777-------------------------5-5-5-5-5-5-5-5-5-5-5-5-|

y por eso, por eso me afronte, y dejare de ser una carga, pues yo ya no
eb|-------------------------------------------------------------------|
Bb|-------------------------------------------------------------------|
Gb|-99999999----------6-6-6-6-6-6-6-6-6-6-6-6-------------------------|
Db|-99999999-99999999-6-6-6-6-6-6-6-6-6-6-6-6-7-7-7-7-7-7-7-7-7-7-7-7-|
Ab|-77777777-99999999-4-4-4-4-4-4-4-4-4-4-4-4-7-7-7-7-7-7-7-7-7-7-7-7-|
Eb|----------77777777-------------------------5-5-5-5-5-5-5-5-5-5-5-5-|

aguanto mas farsas no lo puedo evitar sentir que muere mi flama
eb|--------------------------------------------------------------|
Bb|--------------------------------------------------------------|
Gb|-----------------------------444444444444---------------------|
Db|---------444444444444--------444444444444--------444444444444-|
Ab|---------444444444444--------222222222222--------444444444444-|
Eb|---------222222222222----------------------------222222222222-|

cuando no estas-a-a-as
eb|---------------------------------|
Bb|---------------------------------|
Gb|---------------------------------|
Db|--------7-7-7-7-7-7-9-9-9-9-9-9--|
Ab|--------7-7-7-7-7-7-9-9-9-9-9-9--|
Eb|--------5-5-5-5-5-5-7-7-7-7-7-7--|

y asi, ser un ciclo amor, necesito un favor un poco mas de medicina
eb|-------------------------------------------------------------------|
Bb|-------------------------------------------------------------------|
Gb|-99999999----------6-6-6-6-6-6-6-6-6-6-6-6-------------------------|
Db|-99999999-99999999-6-6-6-6-6-6-6-6-6-6-6-6-7-7-7-7-7-7-7-7-7-7-7-7-|
Ab|-77777777-99999999-4-4-4-4-4-4-4-4-4-4-4-4-7-7-7-7-7-7-7-7-7-7-7-7-|
Eb|----------77777777-------------------------5-5-5-5-5-5-5-5-5-5-5-5-|

pues nunca
entendí la manera para poder evitar sentir que me rompen las piernas
eb|--------------------------------------------------------------|
Bb|--------------------------------------------------------------|
Gb|-----------------------------444444444444---------------------|
Db|---------444444444444--------444444444444--------444444444444-|
Ab|---------444444444444--------222222222222--------444444444444-|
Eb|---------222222222222----------------------------222222222222-|

cuando no estas-a-a-as
eb|---------------------------------|
Bb|---------------------------------|
Gb|---------------------------------|
Db|--------7-7-7-7-7-7-9-9-9-9-9-9--|
Ab|--------7-7-7-7-7-7-9-9-9-9-9-9--|
Eb|--------5-5-5-5-5-5-7-7-7-7-7-7--|

Verso (cheken la canción para ver el resgueo)
   D              A            Bm      G       D             A
ya mi me haría feliz que mi cantar, te haga sentir muy especial,
          Bm       G           Em                  A
que mi cantar, te pueda dar placer, y así juntos envejecer,
                      Em                 D    A   Bm    G
mas no pude hacerte feliz, ya decidí partir   [piano]
             Em                     A
vamos a continuar, con alegría y felicidad,
             Em                   G     A            D
vamos a continuar, nuestra aflicción, nuestra aflicción...

piano
eb|--------------------------------9--11--------------|
Bb|-9---7-------7--9------7-----7---------12---11--12-|
Gb|----------9---------9------------------------------|

eb|---------12-14-11--------------------|
Bb|-12-10-9-----------12-10-9---------9-|
Gb|---------------------------11-9-11---|


Outro
Guitarra 1 (arturo)
eb|------------------------------
Bb|-11h13-11---------------------
Gb|------------------------------
Db|------------------------------
Ab|-----------xx99-xx99-xx99-xx--
Eb|-----------xx77-xx77-xx77-xx--

------------------------------------------------|
-14-141414-12-121212----------------------------|
---------------------13-131313-1413141314131413-|
------------------------------------------------|
------------------------------------------------|
------------------------------------------------|

eb|-------------------------------------------------------------
Bb|-16h17-16-------16h17-16-------16h17-16---------16h17-16-----
Gb|----------16-------------16-------------16---------------16--
Db|-------------18-------------16-------------18hx--------------
Ab|-------------------------------------------------------------
Eb|-------------------------------------------------------------

----------------------------------------------------
----------------------------------------------------
----------------------------------------------------
-141414--------14-14-------16-16-------18-18--------
---------16-16-------16-16-------16-16-------16-16--
----------------------------------------------------

-----------------------------------------|
-----------------------------------------|
-16^-14-13-------------------------------|
-----------16-14-------------------------|
-----------------16-1416-1416-1416-1416--|
-----------------------------------------|

eb|-14h16-14-------14h16-14-------14h16-14-16-----14h16-14-16----
Bb|----------17-------------17-----------------------------------
Gb|------------16-------------16--------------16--------------16-
Db|--------------------------------------------------------------
Ab|--------------------------------------------------------------
Eb|--------------------------------------------------------------

--------------------------------------------19--17-16-----|
-----------------------------------------17-----------17~-|
-1616161616-----------16^----------------16---------------|
------------181818-18-----18-14~--13-14-------------------|
----------------------------------------------------------|
----------------------------------------------------------|

eb|-------------------------------------------------------------
Bb|-16h17-16-------16h17-16-------16h17-16---------16h17-16-----
Gb|----------16-------------16-------------16---------------16--
Db|-------------18-------------16-------------------------------
Ab|-------------------------------------------18----------------
Eb|-------------------------------------------------------------

--------------------------------------------------------------------
-17^-16--17^-16--17^-16--17^-------------17^-16--17^-16--16-16-17^--
-----------------------------------13-16----------------------------
-----------------------------14-16----------------------------------
--------------------------------------------------------------------
--------------------------------------------------------------------

aki termina
-16-14---------|
-------17//// -|
---------------|
---------------|
---------------|
---------------|


Guitarra 2 (pepe)
eb|---------------------------------------------------------------------|
Bb|---------------------------------------------------------------------|
Gb|-9999999999999999------------------6666666666666666------------------|
Db|-9999999999999999-9999999999999999-6666666666666666-7777777777777777-|
Ab|-7777777777777777-9999999999999999-4444444444444444-7777777777777777-|
Eb|------------------7777777777777777------------------5555555555555555-|
x3
en la cuarta vez termina asi...
eb|---------------------------------------------------------------------|
Bb|---------------------------------------------------------------------|
Gb|-9999999999999999------------------6666666666666666----------999999--|
Db|-9999999999999999-9999999999999999-6666666666666666-77777777-999999--|
Ab|-7777777777777777-9999999999999999-4444444444444444-77777777-777777--|
Eb|------------------7777777777777777------------------55555555---------|

eb|-4~-|
Bb|-5~-|
Gb|-4~-|
Db|-2~-|
Ab|-2~-|
Eb|-2~-|

            
            
Suggest correction
Creating personal tab
Creating personal tab
You can edit any tab online and save it as your Personal.

You can edit, replace or remove any tab part or add personal notes – all changes will be seen only by you.

Personal tabs can be accessed anytime from any device, even offline.
Learn more »
Give kudos to tab author, rate the tab!
1 2 3 4 5
comments
print report bad tab
guest
Wanna post a correction for this tab? Suggest correction