Oops, an error
Loading. Please wait.

Nuestra Aflicción tab

version 7
version 7
by Panda
55 views 3 this week
no commentswrite comment
1 2 3 4 5
3 more votes to show rating
add to favorites
×
Save as Personal and add changes to this tab that will be seen only by you. Learn more ›
×
You can save this tab as Personal to edit and correct it or add notes. All changes will be seen only by you. Learn more »
launch autoscroll
font size
0
reset
how to read this tab
guitar tuner
edit
Autoscroll
slow
fast
+/-
esc
set tempo
stop
Va esta es la recopilación del solo
y de los acordes ya que vi que esta mal un tono
el solo lo arregle para que pueda
ser tocado junto con el capo traste.
Entonces para tocar esta canción necesitan poner
un capo en el primer traste para que se
oiga como la original. Quiero ese diez!!!


RECUERDEN CON CAPO EN EL PRIMER TRASTE

D
Cuánto
              F#m
cuánto se necesita
           Bm
para ya resolver, destruir,
       G
este dilema que me tortura
       Em
en las noches,
             A
no me deja soñar,
               Em
amplifica mis temores,
        G   A
ciclo cabal

 D
me encerré
                     F#m
y acabé con mis sueños
               Bm
y la llevé arrojé,
                 G
para qué los necesito
                   Em
sólo me causan angustia,
               A
me hace falta un plan,
               Em
me hace falta astucia
        G    A
y paz mental

D                       F#m
entiendo el rechazo del mundo,
             Bm
tu repudio a amor, ps es igual
             G
si me conociera,
                    Em
talvés voltearia mi cara,
                   A
talvés sentiría lastima,
                     Em
dicen que el amor mancha
           G    A
y ya me ensucié

D             F#m
parece, si parece
   Bm
oh no no
                  G
que lo mucho que ofrezco
   A                   D
no ofrecí tanto y por eso,
     F#m
por eso
        Bm
me afronté
                      G
y dejaré de ser una carga,
                              Em
pues yo ya no aguanto más farsas
                A
no lo puedo evitar,
                     Em
sentir que muere mi flama,
           G   A
cuando no estas

   D                   F#m
y así cierro un ciclo amor,
               Bm
necesito un favor,
                     G
un poco más de medicina,
                          Em
pues nunca entendí la manera
              A
para poder evitar,
                           Em
sentir que me rompen las piernas
           G     A
cuando no estás

G             A
y me haría feliz
            Bm
que mi cantar
   A       G            A
te haga sentir muy especial
         Bm
que mi cantar
    A           Em
te pueda dar placer
                    F#m
y así juntos envejecer
                        G
más no pude hacerte feliz
A               D    F#m - Bm -  G
ya decidí paratir


            Em
vamos a continuar
                A
con alegría y felicidad
              Em
vamos a continuar
                 G
con nuestra aflicción
A              D
nuestra aflicción...

Esto va durante el solo abajo también
pondré sobre las notas que notas son
          |
          | aquí empieza el solo
          v
D - F#m - Bm - G - A
Ohhh   oHH     oHoO

D - F#m - Bm - G - A
Ohhh   oHH     oHoO

D - F#m - Bm - G - A
Ohhh   oHH     oHoO

D - F#m - Bm - G - A
Ohhh   oHH     oHoO

D - F#m - Bm - G - A - D

NOTA IMPORTANTE:
Las notas del solo las tocan
como si no estuviera el capo
osea que las tocan asi como es el numero
original del traste (esto lo ise asi
porque luego es muy dificil contar apartir
del traste que tiene capo.)
Entonces si dice traste 6 ustedes tocan el
6 no vayan a tocar el 7 xD haha
por ejemplo aqui abajo dice:
6b y luego 8b entonces tocan los trastes
asi como son el numero. Por eso en todo
el solo nunca viene ningun traste 0

  Bm
|------------------|
|------------------|
|--6b------8b------|
|------------------|
|------------------|
|------------------|

           G                      A
|-----------------|--------------------------|
|--8~------11~----|--13----13-11-11----11-9--|
|-----------------|--------------------------|
|-----------------|--------------------------|
|-----------------|--------------------------|
|-----------------|--------------------------|

                      D
|--------------------|-----10br-----10----------|
|--8--8--8--8--8--8--|--8---------------11------|
|--------------------|----------------------12--|
|--------------------|--------------------------|
|--------------------|--------------------------|
|--------------------|--------------------------|

  F#m                        Bm
|-----10br-----10----------|-----10br-----10----------|
|------------------11------|------------------11------|
|----------------------12--|--------------------------|
|--------------------------|----------------------12--|
|--------------------------|--------------------------|
|--------------------------|--------------------------|


G                           A
|-----10br-----10----------|------------------|
|------------------11------|------------------|
|--------------------------|--6b------8b------|
|----------------------12--|------------------|
|--------------------------|------------------|
|--------------------------|------------------|

  D                 F#m
|----------6~-----|--6----6-4-3----3-1-|
|--6b-------------|--------------------|
|-----------------|--------------------|
|-----------------|--------------------|
|-----------------|--------------------|
|-----------------|--------------------|


  Bm                     G
|--------------------|-----13--15--13--11------|
|--4---4-------------|---------------------11--|
|---------5-3--3--5--|-------------------------|
|--------------------|-------------------------|
|--------------------|-------------------------|
|--------------------|-------------------------|


     A                      D
|-----13--15--13--11------|-----13--15--13--11------|
|---------------------11--|-------------------------|
|-------------------------|---------------------12--|
|-------------------------|-------------------------|
|-------------------------|-------------------------|
|-------------------------|-------------------------|


     F#m                     Bm
|-----13--15--13--11------|------------------|
|-------------------------|--8----8--6----8--|
|---------------------12--|------------------|
|-------------------------|------------------|
|-------------------------|------------------|
|-------------------------|------------------|

  G                    A
|--6---------------|--------------11-15-|
|-------8----------|--------------------|
|----------8----8--|--7----8------------|
|------------------|--------------------|
|------------------|--------------------|
|------------------|--------------------|

 D                         F#m
|--18----11-------------|-----10br-----10----------|
|-----------11----------|------------------11------|
|--------------8--------|----------------------12--|
|-----------------------|--------------------------|
|-----------------------|--------------------------|
|-----------------------|--------------------------|

     Bm                  G
|-----10b----10----------|-----10b----10----------|
|----------------11------|----------------11------|
|--------------------12--|------------------------|
|------------------------|--------------------12--|
|------------------------|------------------------|
|------------------------|------------------------|

      A                      D
|-----10br-----10----------|--11----10--11----10--|
|------------------11------|----------------------|
|--------------------------|----------------------|
|----------------------12--|----------------------|
|--------------------------|----------------------|
|--------------------------|----------------------|

   F#m                           Bm
|--11----10--11--------------|--11----10--11----10--|
|----------------------11-13-|----------------------|
|----------------10-12-------|----------------------|
|----------------------------|----------------------|
|----------------------------|----------------------|
|----------------------------|----------------------|

   G                        A           D
|--13br-----------13-11--|----------------|
|------------------------|--11~-----------|
|------------------------|----------------|
|------------------------|----------------|
|------------------------|----------------|
|------------------------|----------------|

~- Vibrato (Dejas sonar la cuerda
           mientras mueves ligeramente el dedo)

bm Bend (Estiras la cuerda)

r- Release (Despues de estirar la cuerda la regresas
            a su lugar)

            
            
Suggest correction
Creating personal tab
Creating personal tab
You can edit any tab online and save it as your Personal.

You can edit, replace or remove any tab part or add personal notes – all changes will be seen only by you.

Personal tabs can be accessed anytime from any device, even offline.
Learn more »
Give kudos to tab author, rate the tab!
1 2 3 4 5
comments
print report bad tab
guest
Wanna post a correction for this tab? Suggest correction