Oops, an error
Loading. Please wait.

Nuestra Aflicción tab

version 8
version 8
by Panda
45 views 1 this week
no commentswrite comment
1 2 3 4 5
3 more votes to show rating
add to favorites
×
Save as Personal and add changes to this tab that will be seen only by you. Learn more ›
×
You can save this tab as Personal to edit and correct it or add notes. All changes will be seen only by you. Learn more »
launch autoscroll
font size
0
reset
how to read this tab
guitar tuner
edit
Autoscroll
slow
fast
+/-
esc
set tempo
stop
INTRO: PARA ESTA CANCION SE DEBE USAR EL TRANSPORTADOR O EL CAPO
EN EL PRIMER TRASTE SE TIENE LA AFINACION ESTANDAR O SI NO LO
BAJAN UNO MAS Y YA.

NOTAS:
 D#/F Gm Cm G# G5 Fm A# A#sus4
[3----3--3--3-----1--1--1]
[4----3--4--3-----1--3--4]ESTE ES EL CIRCULO ARMONICO K SE USARA EN
[3----3--5--1-----1--3--3]CASI TODA LA CANCION.
[1----5--5--1-----3--3--3]
[1----5--3--3-----3--1--1]
[1----3--3--4--3--1--1--1]

VERSO:
LETRA:
D#/F                  Gm
¿CUÁNTO, CUANTO SE NECESITA?
            Cm                     G#
PARA YA RESOLVER, DESTRUIR, ESTE DILEMA,
          G5       Fm                   A#
 QUE ME TORTURA EN LAS NOCHES, NO ME DEJA SOÑAR,
                Fm             G#      A#
AMPLIFICA MIS TEMORES, SICLO CABAL A-A-AL.
D#/F                  Gm
ENCERRÉ, Y ACABE CON MIS SUEÑOS,
            Cm                     G#
Y YA LA LLAVE ARROJE, PARA QUE LOS NECESITO,
            G5       Fm                   A#
SOLO ME CAUSAN ANGUSTIA, ME HACE FALTA UN PLAN
                Fm             G#      A#
ME HACE FALTA ASTUCIA, Y PAZ MENTAL A-A-AL.

(AKI SE ENPIEZA UN RASGEO RAPIDO)
D#/F                  Gm
ENTIENDO, EL RECHAZO DEL MUNDO,
            Cm                      G#
TU REPUDIO AMOR, PUES IGUAL, SI ME CONOCIERA,
                   Fm                   A#
TAL VEZ VOLTEARÍA MI CARA, TAL VEZ SENTIRÍA LASTIMA,
                   Fm             G#      A#      A#A#A#A#
DICEN QUE EL AMOR MANCHA, Y YA ME ENSUCIE E-E-EHH

(AKI ENTRA LA PARTE FUERTE)

CORO:
  D#/F        Gm           Cm
PARECE, SI PARECE, HOO NO NO,
                   G#                          D#/F
QUE LO MUCHO QUE OFREZCO, NO OFRECE TANTO Y POR ESO
    Gm          Cm                      G#
POR ESO ME AFRONTE, Y DEJARE DE SER UNA CARGA
                           Fm                 A#
PUES YO YA NO AGUANTO MÁS FARSAS, NO LO PUEDO EVITAR
                     Fm               G#     A#
SENTIR QUE MUERE MI FLAMA CUANDO NO ESTÁS A-A-AAS
   D#/F             Gm
Y ASÍ, CIERRO UN CICLO AMOR,
               Cm                     G#
NECESITO UN FAVOR, UN POCO MÁS DE MEDICINA,
                        Fm                 A#
PUES NUNCA ENTENDÍ LA MANERA, PARA PODER EVITAR
                          Fm                  G#     A#
SENTIR QUE ME ROMPEN LAS PIERNAS, CUANDO NO ESTÁS A-A-AS

PUENTE:
G#           A#            D#/F     Cm      G#            A#
Y ME HARÍA FELIZ, QUE MI CANTAR TE HAGA SENTIR, MUY ESPECIAL
          D#      Cm          Fm Fm Fm
QUE MI CANTAR TE PUEDA DAR PLACER
               Gm            Cm  A#sus4        G#
Y ASÍ JUNTOS ENVEJECER, MAS NO PODRE HACERTE FELIZ
    A#         D#/F
YA DECIDÍ PARTIR

Gm  Cm - G#
              Fm                   A#
VAMOS A CONTINUAR, CON ALEGRÍA Y FELICIDAD,
              Fm                  G#   A#           D#/F
VAMOS A CONTINUAR, NUESTRA AFLICCIÓN, NUESTRA AFLICCIÓN

BREAK:
 D#.........G5..........C5..........G#5.........
[----------------------------------------------]
[----------------------------------------------]ESTO LO REPITE
[------------------------5-5-5-5-5-5-----------]LA 2 GUITARRA,
[1-1-1-1-1-1-5-5-5-5-5-5-5-5-5-5-5-5-6-6-6-6-6-]CUANDO LA 1 AC
[1-1-1-1-1-1-5-5-5-5-5-5-3-3-3-3-3-3-6-6-6-6-6-]EL SOLO
[------------3-3-3-3-3-3-------------4-4-4-4-4-]

SOLO: (*, SIGNIFIK UN BEND, ESTIRAR Y SOLTAR LA COERDA, V
ES UN VIBRATO)
[------------------------------------v-v-v-v-v---]
[6*x-x--8*x-x-11*11-13-13-11-11-11-9-8-8-8-8-8-9-]
[8*x-x-10*x-x-14*--------------------------------]
[------------------------------------------------]
[------------------------------------------------]
[------------------------------------------------]

[10/11/10-----10/11/10-----10/11/10------10/11/10------]
[--------11-----------11------------11------------11---]
[----------12-----------12-----------------------------]
[-------------------------------------12------------12-]
[------------------------------------------------------]
[------------------------------------------------------]

[------------------------------------------------------]
[6*x-x--8*x-x-11*11-11-11--11-9-8-8--------------------]
[8*x-x-10*x-x-14*-------------------10-8-8-------------]
[------------------------------------------10-8-8-10---]
[------------------------------------------------------]
[------------------------------------------------------]

[13/15/13-11---13/15/13-11---13/15/13-11---13/15/13-11---]
[-----------11------------11-----------------------------]
[---------------------------------------12------------12-]
[--------------------------------------------------------]
[--------------------------------------------------------]
[--------------------------------------------------------]

[----------------------------------11-15-18-15-12------]
[------------11----------------------------------------]
[12-12-10-12----12-------------12-----------------9-9/-]
[------------------13-13-12-13-------------------------]
[------------------------------------------------------]
[------------------------------------------------------]

[10/11/10-----10/11/10-----10/11/10------10/11/10------]
[--------11-----------11------------11------------11---]
[----------12-----------12-----------------------------]
[-------------------------------------12------------12-]
[------------------------------------------------------]
[------------------------------------------------------]

[11-10-11-10-11-10-11-------------11-10-11-10-13/15-13-11----]
[---------------------------11-13-------------------------11-]
[---------------------10-12----------------------------------]
[------------------------------------------------------------]
[------------------------------------------------------------]
[------------------------------------------------------------]

            
            
Suggest correction
Creating personal tab
Creating personal tab
You can edit any tab online and save it as your Personal.

You can edit, replace or remove any tab part or add personal notes – all changes will be seen only by you.

Personal tabs can be accessed anytime from any device, even offline.
Learn more »
Give kudos to tab author, rate the tab!
1 2 3 4 5
comments
print report bad tab
guest
Wanna post a correction for this tab? Suggest correction