Oops, an error
Loading. Please wait.

Tiempos Rudos bass

41 views 1 this week
no commentswrite comment
1 2 3 4 5
3 more votes to show rating
add to favorites
×
Save as Personal and add changes to this tab that will be seen only by you. Learn more ›
×
You can save this tab as Personal to edit and correct it or add notes. All changes will be seen only by you. Learn more »
launch autoscroll
font size
0
reset
guitar tuner
edit
Autoscroll
slow
fast
+/-
esc
set tempo
stop
Panico latino ? Tiempos rudos
Email: skaeduardoska@
Pues aquí les dejo una rola mas aprtandola el bajeo solo
escuchenlo y metanlo ais va toda la rola esta sencilla aunque
el bajeo si eres novato esta un poco rapido ay se los dejo.
skaeduardoska@
Hup, ha Hup, ha Hup, ha Hup, ha he he he he
Si piensas que todo te sale mal?.
G|------------------------------------------------------------------|
D|----5-2-3------5-2-3----------------------------------------------|
A|--3-------5---3------5----3----3----5----5------------------------|
E|------------------------1----1----3---3---------------------------|

Cuando va el pedazo por los tiempos rudos Tiempos
tiempos rudos rudos se repite Fa ? y sol osea seria 1 tiempo
 mas de

A|------3----3----5----5----3---3---5---5-----------|
E|----1----1----3---3-----1---1---3---3-------------|

Y despues sigue igual

G|------------------------------------------------------------------|
D|----5-2-3------5-2-3----------------------------------------------|
A|--3-------5---3------5----3----3----5----5------------------------|
E|------------------------1----1----3---3---------------------------|

Oiganla y acomoden bien los tiempos ya em da hueva
poner bien los tiempos Cuidense.
Email: skaeduardoska@
Suggest correction
Creating personal tab
Creating personal tab
You can edit any tab online and save it as your Personal.

You can edit, replace or remove any tab part or add personal notes – all changes will be seen only by you.

Personal tabs can be accessed anytime from any device, even offline.
Learn more »
Give kudos to tab author, rate the tab!
1 2 3 4 5
comments
print report bad tab
guest
Wanna post a correction for this tab? Suggest correction