Oops, an error
Loading. Please wait.

Lo Mejor tab

14 views 1 this week
no commentswrite comment
1 2 3 4 5
3 more votes to show rating
add to favorites
×
Save as Personal and add changes to this tab that will be seen only by you. Learn more ›
×
You can save this tab as Personal to edit and correct it or add notes. All changes will be seen only by you. Learn more »
launch autoscroll
font size
0
reset
how to read this tab
guitar tuner
edit
Autoscroll
slow
fast
+/-
esc
set tempo
stop
e-------------------------------------------------------------
b-------------------------------------------------------------
g-------------------------------------------------------------
d----------5-5-7-7-7-5----------------------5--5-7-7-7-5------
a-7--7-5-7-------------5-7-------5-7--7-5-7---------------5-7-
e----------------------------5-7------------------------------


E5
Si queres vivir algo diferente
y poder mostrar lo que esta en tu mente
      A5
No esta mal
                   E5 D5 E5
Intenta: algo podras cambiar
      A5  D5      E5
Es momento de reaccion
      A5  D5      E5
Lo que importa es tu interior
      A5  D5      E5
No te escondas sin saber
G5            A5
Como es......

        E5      D5
Hoy quiero ver lo mejor
      E5     D5   E5
De tu imaginacion
E5    D5        E5    D5
No quiero verte caer
E5     D5   E5      D5   E5
En la locura y desaparecer


e-------------      x
b-------------      x
g-------------      x
d-------------      x
a--------5-7-            a--------
e-5-7--------  X3          e-5-7--

Esta vez sos vos
LA que Abrio MI mente
Con sentirte asi
Ya sos diferente
Y es real
Intenta: algo podras cambiar

Es momento de reaccion
Lo que importa es tu interior
No te escondas sin saber
Como es.....

Hoy quiero ver lo mejor
De tu imaginacion
No quiero verte caer
En la locura y desaparecer


Es momento de reaccion
Lo que importa es tu interior
No te escondas sin saber
Como es.....

Hoy quiero ver lo mejor
De tu imaginacion
No quiero verte caer
En la locura....

Hoy quiero ver lo mejor
De tu imaginacion
No quiero verte caer
En la locura y desaparecer

            
            
Suggest correction
Creating personal tab
Creating personal tab
You can edit any tab online and save it as your Personal.

You can edit, replace or remove any tab part or add personal notes – all changes will be seen only by you.

Personal tabs can be accessed anytime from any device, even offline.
Learn more »
Give kudos to tab author, rate the tab!
1 2 3 4 5
comments
print report bad tab
guest
Wanna post a correction for this tab? Suggest correction