Oops, an error
Loading. Please wait.

La Dosis Perfecta bass

version 1
version 1

Whole song

Interactive

647 views 6 this week
no commentswrite comment
1 2 3 4 5
3 more votes to show rating
add to favorites
×
Save as Personal and add changes to this tab that will be seen only by you. Learn more ›
×
You can save this tab as Personal to edit and correct it or add notes. All changes will be seen only by you. Learn more »
launch autoscroll
font size
0
reset
guitar tuner
edit
Autoscroll
slow
fast
+/-
esc
set tempo
stop
Aqui corrijo muchos detalles de acodes en el bajo que hacian
falta en la transcripcion que hicieron anteriormente.


Este es el inicio de la cancion, primero entra la voz y despues se
unen los instrumentos, cuando dice VAS hasta entonces entra todo.

  Cm             Fm            Cm         A#
G|------------------------------------------------------|
D|------------------------------------------------------|
A|-3--5--6--5----------3-------3--5--6--5-----5--8--5---|
E|---------------1--4-----4----------------6----------6-|


   Cm         Fm           A#         B
G|------------------------------------------------------|
D|------------------------------------------------------|
A|-3--5--6--5--------3------1---------2-----------------|
E|-------------1--4-----4-------------------------------|

   Cm         Fm            Cm         A#
G|------------------------------------------------------|
D|------------------------------------------------------|
A|-3--3--3--3---------------1--1--1--1------------------|
E|-------------1--1--1--1/3-------------6--6--6--6------|

  Cm          Fm           Cm          G#
G|------------------------------------------------------|
D|--------------------------------------------6---------|
A|-3--3--3--3---------------3--5--6--5------------------|
E|-------------1--1--1--1/3-------------4-------4-3-----|

   Cm                      Gm
G|------------------------------------------------------|
D|------------------------------------------------------|
A|-3--5--6--5--3--5--6--5------5--5----5----------------|
E|-------------------------3--3----3--3---3-------------|

   Cm                      Fm
G|------------------------------------------------------|
D|------------------------------------------------------|
A|-3--5--6--5--3--5--6--5--------3-----------3----------|
E|-------------------------1--4-----4--1--4-----4-------|

  Gm                      Fm
G|------------------------------------------------------|
D|------------------------------------------------------|
A|-------5-----------5-----------3-----------3----------|
E|-3--6-----6--3--6-----6--1--4-----4--1--4-----4-------|

   A#              B
G|------------------------------------------------------|
D|------------------------------------------------------|
A|-1---------------2------------------------------------|
E|------------------------------------------------------|


************CORO**********SE REPITE DOS VECES************

  Cm                      A#
G|------------------------------------------------------|
D|------------------------------------------------------|
A|-3--5--6--5--3--5--6--5-----5--8--5-----5--8--5-------|
E|-------------------------6-----------6----------------|

   Gm                Cm
G|------------------------------------------------------|
D|------------------------------------------------------|
A|-----5--5----5-----3--3-5--5-6--6-10-10---------------|
E|-3--3----3--3---3-6-----------------------------------|


********TROMPETAS************

  Cm          Fm          Cm         A#
G|------------------------------------------------------|
D|------------------------------------------------------|
A|-3--5--6--5-3------3-----3--5--6--5-3--5--8--5--------|
E|-------------1--4-----4-3------------6--------6-------|

   Cm         Fm          A#       B
G|------------------------------------------------------|
D|------------------------------------------------------|
A|-3--5--6--5-3------3-----1--1-1--1-2--2-2-------------|
E|-------------1--4-----4-3-----------------------------|

  Cm           G#          Cm         A#
G|------------------------------------------------------|
D|------------------------------------------------------|
A|-3--3--3--3-3------------3--3--3-----1--1--1----------|
E|-------------4--4--4--4-6-----------------------------|

  Cm          Fm            Cm          G#               Gm
G|----------------------------------------------------------|
D|--------------------------------------------------6-------|
A|-3--3--3-----------------1-3--5--6--5----------------6----|
E|-------------1--1--1-1-3---------------4--*--*--*-------3-|


Cuando las trompetas terminan vuelve a la voa y el bajo queda
en silencio hasta que volvemos a caer al coro.


Esta es toda la cancion tiene unas pequeñas variantes en el final
ya que son los mismos acordes que en el coro,
cuando den la nota de A# hacen una segunda vuelta un poco mas rapido
eso es todo, cualquier comentario, sugerencia o si ven
errores favor de avisarme para poder corregirlos
mi correo es juan_101285@

            
            
Suggest correction
Creating personal tab
Creating personal tab
You can edit any tab online and save it as your Personal.

You can edit, replace or remove any tab part or add personal notes – all changes will be seen only by you.

Personal tabs can be accessed anytime from any device, even offline.
Learn more »
Give kudos to tab author, rate the tab!
1 2 3 4 5
comments
print report bad tab
guest
Wanna post a correction for this tab? Suggest correction