Oops, an error
Loading. Please wait.

La Dosis Perfecta bass

version 2
version 2

Whole song

Interactive

433 views 1 this week
no commentswrite comment
1 2 3 4 5
3 more votes to show rating
add to favorites
×
Save as Personal and add changes to this tab that will be seen only by you. Learn more ›
×
You can save this tab as Personal to edit and correct it or add notes. All changes will be seen only by you. Learn more »
launch autoscroll
font size
0
reset
guitar tuner
edit
Autoscroll
slow
fast
+/-
esc
set tempo
stop
AQUÍ TIENEN ESTA TABLATURA ES LA PRIMERA QUE SUBO

ESPERO LES AYUDE A SACAR ESTA ROLA ESTA COMO AL 97% CHEQUENLA..

¡¡¡SALUDOS!!! CUALQUIER DUDA O COMENTARIO MI CORREO ES

alezzandro_19@ OJALA PUEDAN DEJAR SU COMENTARIO?

  Cm             Fm                 Cm         A#
G|------------------------------------------------------|
D|----------3----------------------------3--------3-5-3-|
A|-3--5--6------------3--3------3--5--6---------5--5----|
E|---------------1--1---1---------------------6---------|


   Cm         Fm            A#         B
G|------------------------------------------------------|
D|----------3-------------------------------------------|
A|-3--5--6-----------3-------1-1--------2---------------|
E|-------------1--1-----1-------------------------------|

   Cm          G#           Cm         A#
G|------------------------------------------------------|
D|------------------------------------------------------|
A|---3--3--3---3-------------3--3--3---3--1-1-1---------|
E|-1-------------4-4-4-----4----------------------------|

  Cm          Fm             Cm          G#
G|------------------------------------------------------|
D|------------------------------------3-----------------|
A|-1--3--3--3---3------------3--5--6------------6-3-----|
E|----------------1-1-1---1--------------4--------------|

   Cm                           Gm
G|------------------------------------------------------|
D|----------3-------------3-----------------------------|
A|-3--5--6----6--3--5--6----6-------5-5-----5-----------|
E|------------------------------3--3---3--3---3---------|

   Cm                       Fm
G|------------------------------------------------------|
D|----------3---------3----------1-------1---1----------|
A|-3--5--6----6--3--5---6------3---3---3---3------------|
E|---------------------------1-------1------------------|

  Gm                      Fm
G|------------------------------------------------------|
D|-----3---3-----3---3--------1---1-----1-1-------------|
A|---5---5-----5---5--------3---3-----3--3--------------|
E|-3---------3------------1---------1-------------------|

   A#              B
G|------------------------------------------------------|
D|------------------------------------------------------|
A|-1---1-----------2------------------------------------|
E|------------------------------------------------------|


************ CORO SE REPITE DOS VECES ************

  Cm                            A#
G|------------------------------------------------------|
D|---------3-------------3-----------3--5-3------3--5-3-|
A|-3--5--6---6?--3--5--6---6------5-----------5---------|
E|-----------------------------6------------6-----------|

   Gm                 Cm
G|------------------------------------------------------|
D|-------------------------------------------5----------|
A|-----5--5----5-------3----3-5--3-5-6---5-6-----6------|
E|-3--3----3--3--3----3-5----5--------------------------|


******** teclado ************

Esta parte es donde hace unos pequeños adornos

el teclado o sintetizador

es casi lo mismo

solo varia en el Cm y el A# donde el bajo hace un pequeño adorno?


   Cm                         A#
G|------------------------------------------------------|
D|---------3-------------3-----------3--5-3------3--5-3-|
A|-3--5--6---6?--3--5--6---6------5-----------5---------|
E|-----------------------------6------------6-----------|

   Gm                  Cm
G|------------------------------------------------------|
D|-------------------------------------------5----------|
A|-----5--5----5--------3----3-5--3-5-6---5-6-----6-----|
E|-3--3----3--3---3----3-5------------------------------|

    Cm                         A# adorno?
G|----------------------------------------------------3------|
D|---------3-------------3-----------3--5-3------3--5---5-3--|
A|-3--5--6---6?--3--5--6---6------5-----------5-------------5|
E|-----------------------------6------------6----------------|

   Gm                Cm
G|------------------------------------------------------|
D|-------------------------------------------5----------|
A|-----5--5----5-------3----3-5--3-5-6---5-6-----6------|
E|-3--3----3--3----3-5----5-----------------------------|


    Cm  adorno                   A#
G|------------------------------------------------------|
D|-----------3-------------3-----------3--5-3----3--5-3-|
A|-3-3--5--6---6?--3--5--6---6------5-----------5-------|
E|-------------------------------6------------6---------|

ESTO ES TODO!!!
 LA DEMAS PARTE SE REPITE CHEQUENLA ESCUCHANDO LA CANSION.

            
            
Suggest correction
Creating personal tab
Creating personal tab
You can edit any tab online and save it as your Personal.

You can edit, replace or remove any tab part or add personal notes – all changes will be seen only by you.

Personal tabs can be accessed anytime from any device, even offline.
Learn more »
Give kudos to tab author, rate the tab!
1 2 3 4 5
comments
print report bad tab
guest
Wanna post a correction for this tab? Suggest correction