Oops, an error
Loading. Please wait.

Toloache tab

version 2
version 2

Whole song

74 views 1 this week
no commentswrite comment
1 2 3 4 5
3 more votes to show rating
add to favorites
×
Save as Personal and add changes to this tab that will be seen only by you. Learn more ›
×
You can save this tab as Personal to edit and correct it or add notes. All changes will be seen only by you. Learn more »
launch autoscroll
font size
0
reset
how to read this tab
guitar tuner
edit
Autoscroll
slow
fast
+/-
esc
set tempo
stop
Aunque en lo personal no es mi estilo de musica quisiera dedicar 
esta rola a la chava que AMO. 

'Rocio: Esto es para ti donde quiera que estes' 

Acordes
       B    D#m   C#m    F#    E
e|-----7-----6-----4-----2-----0---------------------------------|
B|-----7-----7-----5-----2-----0---------------------------------|
G|-----8-----8-----6-----3-----1---------------------------------|
D|-----9-----8-----6-----4-----2---------------------------------|
A|-----9-----6-----4-----4-----2---------------------------------|
E|-----7-----6-----4-----2-----0---------------------------------|


     Intro  
    B               D#m            C#m            F#
e|----7------7--------6-----6--------4-----4--------2-----2------|
B|------7------7--------7-----7--------5-----5--------2-----2----|
G|--8-----8------8--8-----8-----8--6-----6-----6--3-----3-----3--|
D|---------------------------------------------------------------|
A|---------------------------------------------------------------|
E|---------------------------------------------------------------|


Riff 1
    B             D#m            C#m             F#
    v ^ v  ^  v v  v ^ v  ^  v v  v ^ v  ^  v v  v ^ v  ^  v v 
e|--7-7----7--7-7--6-6----6--6-6--4-4----4--4-4--2-2----2--2-2--|
B|--7-7-7--7--7-7--7-7-7--7--7-7--5-5-5--5--5-6--2-2-2--2--2-2--|
G|--8-8-8-----8-8--8-8-8-----8-8--6-6-6-----6-6--3-3-3-----3-3--|
D|--9---9----------8---8----------6---6-------4--4---4----------|
A|--9--------------6--------------4--------------4--------------|
E|--7--------------6--------------4--------------2--------------|

Riff 2
e|--7-7-7-7-7-7-6-6-6-6-6-6-4-4-4-4-4-4-2-2-2-2-2-2---|
B|--7-7-7-7-7-7-7-7-7-7-7-7-5-5-5-5-5-5-2-2-2-2-2-2---|
G|--8-8-8-8-8-8-8-8-8-8-8-8-6-6-6-6-6-6-3-3-3-3-3-3---|
D|--9-9-9-9-9-9-8-8-8-8-8-8-6-6-6-6-6-6-4-4-4-4-4-4---|
A|--9-9-9-9-9-9-6-6-6-6-6-6-4-4-4-4-4-4-4-4-4-4-4-4---|
E|--7-7-7-7-7-7-6-6-6-6-6-6-4-4-4-4-4-4-2-2-2-2-2-2---|


 Intro y riff1 juntos 

(Riff 1)
llevo ya dias buscando su cuerpo en la arena y en el mar
y en las palmeras.
busco la sal y la risa que suda al bailar 
toda esta fiesta.
una sonrisa de noche y su vestido cayo y resbalo
aqui en la playa   
y mi negrita se esfuna entre el baile 
de las estrellas..  
aha aha aha aha  

Riff 2 (muy rapido)
                                                                                                
ahi por favor que alguien me de una razon, ska..


Esta parte con struming

e|---0-0----------2-2-2-2-2-2-------------------------------------|
B|---0-0----------2-2-2-2-2-2-------------------------------------|
G|---1-1-1-1-0-0--3-3-3-3-3-3-------------------------------------|
D|---2-2-2-2-2-0--4-4-4-4-4-4-------------------------------------|
A|---2-2-2-2-2-0--4-4-4-4-4-4-------------------------------------|
E|---0-0-0-0-0-0--2-2-2-2-2-2-------------------------------------|

(Cambio a ritmo mas rapido)

(Riff 2)
una posion necesito una magica ilusion para aliviar
esta pena
una cancion que le haga estallar el corazon
y la cabeza
un gran brebaje necesito algo como un toloache, un toloache
para mi negra
donde lo encuentro, necesito que me digan de un toloache
para mi neegra.

° 
Los simbolos sobre las notas en el verso indican el sentido en que se 
deben de tocar :  
            v - tocar hacia abajo
            ^ - tocar hacia arriba

Estas indicaciones fueron copiadas de una tab de CAIFANES de:
 Leonardo Calva Medinilla lg276942@

°
Durante toda la primera parte yo escucho la canción algo despacio por eso 
ocupo el Riff1 para todas esas lineas, los cambios los reconoces como en
 la parte de 'strumming' y el Riff2 en la segunda parte, toca los arpegios
con la misma figura y las variaciones que quieras.

'Sé que llegarás hasta el final'  RAGJ&RRM

            
            
Suggest correction
Creating personal tab
Creating personal tab
You can edit any tab online and save it as your Personal.

You can edit, replace or remove any tab part or add personal notes – all changes will be seen only by you.

Personal tabs can be accessed anytime from any device, even offline.
Learn more »
Give kudos to tab author, rate the tab!
1 2 3 4 5
comments
print report bad tab
guest
Wanna post a correction for this tab? Suggest correction