Oops, an error
Loading. Please wait.

Vendedora De Caricias bass

743 views 3 this week
no commentswrite comment
1 2 3 4 5
x 3
add to favorites
×
Save as Personal and add changes to this tab that will be seen only by you. Learn more ›
×
You can save this tab as Personal to edit and correct it or add notes. All changes will be seen only by you. Learn more »
launch autoscroll
font size
0
reset
guitar tuner
edit
Autoscroll
slow
fast
+/-
esc
set tempo
stop
Aca les va esta cancion tan chida
Va dedicado con mucho cariño para Astrid
te Amo mi chiquita linda
atte. miauri

00:39
Vendedora de caricias
E|----------|---------|-222-----|-222------|
A|--222---5-|-222-5---|-----0-4-|-----0-4--|
D|------4---|-------4-|---------|----------|
G|----------|---------|---------|----------|

que esta noche estoy muy solo
E|----------|---------|-222-----|-222------|
A|--444-----|-444-----|-----0-4-|-----0-4--|
D|------3-6-|-----6-3-|---------|----------|
G|----------|---------|---------|----------|

Vendedora de caricias
E|----------|---------|-222-----|-222------|
A|--222---5-|-222-5---|-----0-4-|-----0-4--|
D|------4---|-------4-|---------|----------|
G|----------|---------|---------|----------|

que esta noche estoy muy solo
E|----------|---------|-222-----|-2--|
A|--444-----|-444-----|-----0-4-|----|
D|------3-6-|-----6-3-|---------|----|
G|----------|---------|---------|----|

Finge que soy importante
E|----------|-2222222-|---------|-2222222--|
A|--2222222-|---------|-4444444-|----------|
D|----------|---------|---------|----------|
G|----------|---------|---------|----------|

Finge que soñamos juntos
E|----------|---------|-2222222--|
A|--2222222-|-4444444-|----------|
D|----------|---------|----------|
G|----------|---------|----------|

Vendedora de caricias
E|----------|---------|-222-----|-222------|
A|--222---5-|-222-5---|-----0-4-|-----0-4--|
D|------4---|-------4-|---------|----------|
G|----------|---------|---------|----------|

que esta noche estoy muy solo
E|----------|---------|-222-----|-222------|
A|--444-----|-444-----|-----0-4-|-----0-4--|
D|------3-6-|-----6-3-|---------|----------|
G|----------|---------|---------|----------|

Vendedora de caricias
E|----------|---------|-222-----|-222------|
A|--222---5-|-222-5---|-----0-4-|-----0-4--|
D|------4---|-------4-|---------|----------|
G|----------|---------|---------|----------|

que esta noche estoy muy solo
E|----------|---------|-222-----|-14/2--|
A|--444-----|-444-----|-----0-4-|-------|
D|------3-6-|-----6-3-|---------|-------|
G|----------|---------|---------|-------|

Finge que esto no es lo mismo
E|----------|-2222222-|---------|----------|
A|--2222222-|---------|-4444444-|----------|
D|----------|---------|---------|-4444444--|
G|----------|---------|---------|----------|

Finge que yo soy tu todo
E|----------|---------|-2222222--|
A|--2222222-|-4444444-|----------|
D|----------|---------|----------|
G|----------|---------|----------|

Vendedora de caricias
E|----------|---------|-222-----|-222------|
A|--222---5-|-222-5---|-----0-4-|-----0-4--|
D|------4---|-------4-|---------|----------|
G|----------|---------|---------|----------|

que esta noche estoy muy solo
E|----------|---------|-222-----|-222------|
A|--444-----|-444-----|-----0-4-|-----0-4--|
D|------3-6-|-----6-3-|---------|----------|
G|----------|---------|---------|----------|

Vendedora de caricias
E|----------|---------|-222-----|-222------|
A|--222---5-|-222-5---|-----0-4-|-----0-4--|
D|------4---|-------4-|---------|----------|
G|----------|---------|---------|----------|

que esta noche estoy muy solo
E|----------|---------|-222-----|-222------|
A|--444-----|-444-----|-----0-4-|-----0-4--|
D|------3-6-|-----6-3-|---------|----------|
G|----------|---------|---------|----------|

Vendedora de caricias
E|----------|---------|-222-----|-222------|
A|--222---5-|-222-5---|-----0-4-|-----0-4--|
D|------4---|-------4-|---------|----------|
G|----------|---------|---------|----------|

que esta noche estoy muy solo
E|----------|---------|-222-----|-222------|
A|--444-----|-444-----|-----0-4-|-----0-2--|
D|------3-6-|-----6-3-|---------|----------|
G|----------|---------|---------|----------|

Esta noche estoy muy solo
E|----------------4-|-2-------2--------|
A|--4---------2-0---|---0-4-0---0-2-3--|
D|----3-4-5-6-------|------------------|
G|------------------|------------------|

Esta noche estoy muy solo
E|----------------4-|-2-------2--------|
A|--4-------4-2-0---|---0-4-0---0-2-3--|
D|----3-6-3---------|------------------|
G|------------------|------------------|

Esta noche estoy muy solo
E|----------------4-|-2---------------2--|
A|--4-------4-2-0---|---0-2-3-4-4-2-0----|
D|----3-6-3---------|--------------------|
G|------------------|--------------------|

espero les guste como a mi
 gatolar

            
            
Suggest correction
Creating personal tab
Creating personal tab
You can edit any tab online and save it as your Personal.

You can edit, replace or remove any tab part or add personal notes – all changes will be seen only by you.

Personal tabs can be accessed anytime from any device, even offline.
Learn more »
Give kudos to tab author, rate the tab!
1 2 3 4 5
comments
print report bad tab
guest
Wanna post a correction for this tab? Suggest correction