Oops, an error
Loading. Please wait.

Verte Aquí bass

version 1
version 1

Whole song

Interactive

183 views 1 this week
no commentswrite comment
1 2 3 4 5
3 more votes to show rating
add to favorites
×
Save as Personal and add changes to this tab that will be seen only by you. Learn more ›
×
You can save this tab as Personal to edit and correct it or add notes. All changes will be seen only by you. Learn more »
launch autoscroll
font size
0
reset
guitar tuner
edit
Autoscroll
slow
fast
+/-
esc
set tempo
stop
Debe tar en un 98% correcta, derrepente improvisa mucho en el
bajo y no alcanzo a oir, pero esta es una buena versión
escuchen bien la cancion y con la tab saldra bien
La mayoría de la canción es con slap y popping, excepto
en los interludio, al principio sonara medio dificil
pero con la practica se oye de lujo.

Afinación: Standard

(Quiero Llegar....)
G---------------------
D---------------------
A---------------------
E-13(slide)1---------

Verso:
---------------------------------------------3h5p3--------7-7
----------3h5p3-----------3-2-------------------------------- x3
------------------3-x-3-x-------3-1-(1)-1--1-------1-333-5-5-
-1-x-1-x-----------------------------------------------------
                                                  (tresillo)

-----------------------------------------------------------------
----------3h5p3-----------3-2------------------------------------
------------------3-x-3-x-------3-1-(1)-1-(1)-1-(1)-1/13-13-13-13
-1-x-1-x---------------------------------------------------------

Coro:
-------------------------------3-3--2--0---0--2
-----------------------------------------3-----
--------------3--3-3-3-3-3-3-0--1--------------
-1-1-1-1-1-1-1---------------------------------

---3---3-------5---5----------------------
------------------------------------------
-1---1---1---3---3---3---6(x8)-6-5-3-1----
------------------------------------------

Verso:
---------------------------------------------3h5p3--------7-7
----------3h5p3-----------3-2-------------------------------- x3
------------------3-x-3-x-------3-1-(1)-1--1-------1-333-5-5-
-1-x-1-x-----------------------------------------------------
                                                  (tresillo)

-----------------------------------------------------------------
----------3h5p3-----------3-2------------------------------------
------------------3-x-3-x-------3-1-(1)-1-(1)-1-(1)-1/13-13-13-13
-1-x-1-x---------------------------------------------------------

Coro (x2):
-------------------------------3-3--2--0---0--2
-----------------------------------------3-----
--------------3--3-3-3-3-3-3-0--1--------------
-1-1-1-1-1-1-1---------------------------------

---3---3-------5---5---------------------
------------------------------------------
-1---1---1---3---3---3---6(x8)-6-5-3-1----
------------------------------------------

Interludio (x4):

--7-7-77-7-7-77------------------------------------------------
-----------------6-6-66-6-6-66--8-8-88--8-8-88--8-8-88--8-8-88-
-5-5-5--5-5-5--------------------------------------------------
----------------4-4-4--4-4-4---6-6-6---6-6-6---6-6-6---6-6-6---

Coro (x2):
-------------------------------3-3--2--0---0--2
-----------------------------------------3-----
--------------3--3-3-3-3-3-3-0--1--------------
-1-1-1-1-1-1-1---------------------------------

---3---3-------5---5---------------------
------------------------------------------
-1---1---1---3---3---3---6(x8)-6-5-3-1----
------------------------------------------

Interludio (x3):

--7-7-7-7-7-7-7-7------------------------------------------------
------------------6-6-6-6-6-6-6-6-8-8-8-8-8-8-8-8-8-8-8-8-8-8-8-8
-5-5-5-5-5-5-5-5-------------------------------------------------
-----------------4-4-4-4-4-4-4-4-6-6-6-6-6-6-6-6-6-6-6-6-6-6-6-6-

Final
---------------------------------------15(15)----15(15)
-12-(12)-12-14-15-14-12----------------15(15)----15(15)
------------------------10h11(11)-11h13--------13------
-------------------------------------------------------

----------------------------------------------------------------
-12-(12)-12-14-15-14-12-----------------------------------------
------------------------10h11(11)-11h13-------------------------
----------------------------------------6-(6)-(dejar sonando)---


Ahi esta,grande Papa Negro
Para ti Picho, que nos queda Enero

            
            
Suggest correction
Creating personal tab
Creating personal tab
You can edit any tab online and save it as your Personal.

You can edit, replace or remove any tab part or add personal notes – all changes will be seen only by you.

Personal tabs can be accessed anytime from any device, even offline.
Learn more »
Give kudos to tab author, rate the tab!
1 2 3 4 5
comments
print report bad tab
guest
Wanna post a correction for this tab? Suggest correction