Oops, an error
Loading. Please wait.

Que Pasó tab

version 1
version 1

Whole song

8 views 1 this week
no commentswrite comment
1 2 3 4 5
3 more votes to show rating
add to favorites
×
Save as Personal and add changes to this tab that will be seen only by you. Learn more ›
×
You can save this tab as Personal to edit and correct it or add notes. All changes will be seen only by you. Learn more »
launch autoscroll
font size
0
reset
how to read this tab
guitar tuner
edit
Autoscroll
slow
fast
+/-
esc
set tempo
stop
Esta es la introducion esta igual a la original solo
escuchen la cancion y les va a salir igualita.


INTRO:

1) -----------9-13---13-13-10-9---12-12-9-8--- Continua--->
2) -9-12---10---------------------------------
3) -------------------------------------------

1) ------------------11-15-----9-13---13-13-10-9 continua-->
2) -11-14-12-11-14-12--------10-----------------
3) ---------------------------------------------

1) -12-12-9-8--
2) ------------
3) ------------

1) ------14-16-14-------14-16-14-------14-16-14-
2) -14-14----------14-14----------14-14---------continua->
3) ---------------------------------------------

1) -18-17-15-13-
2) -------------
3) ------------- (x2)

con mucho amor para mi chica engreida DOLLY  te quiero mucho
estes donde estes

            
            
Suggest correction
Creating personal tab
Creating personal tab
You can edit any tab online and save it as your Personal.

You can edit, replace or remove any tab part or add personal notes – all changes will be seen only by you.

Personal tabs can be accessed anytime from any device, even offline.
Learn more »
Give kudos to tab author, rate the tab!
1 2 3 4 5
comments
print report bad tab
guest
Wanna post a correction for this tab? Suggest correction