Oops, an error
Loading. Please wait.

Que Pasó tab

version 2
version 2

Whole song

22 views 1 this week
no commentswrite comment
1 2 3 4 5
3 more votes to show rating
add to favorites
×
Save as Personal and add changes to this tab that will be seen only by you. Learn more ›
×
You can save this tab as Personal to edit and correct it or add notes. All changes will be seen only by you. Learn more »
launch autoscroll
font size
0
reset
how to read this tab
guitar tuner
edit
Autoscroll
slow
fast
+/-
esc
set tempo
stop
BUENO ANTE TODO HOLAS YA Q MAYORMENTE PAPILLON NU TIENE PUNTEO AKA LES
VA PS TMB VA DEDIKADO A ALGUIEN K KISE MUXO XD CUALKIER DUDA ME LLAMO
hEACXELL Y ES MI SEGUNDA COLABORACION CUALKIER COSA ME ESCRIBEN A
CENMYSBAT@

Intro #1

1)---------3-3-2-0---------------------------------3-3-2-0----------
2)-------5---------3-3-2-0-----------------------5---------3-3-2-0--
3)-3-5-5-------------------3--3-4-3-3-4-3--3-5-5-------------------3
4)------------------------------------------------------------------
5)------------------------------------------------------------------
6)------------------------------------------------------------------

Intro #2

1)-------5----------5---5-5-5-7-5--5------
2)-8-8-8---8--8-8-8---8--------------8-7-5
3)----------------------------------------
4)----------------------------------------
5)----------------------------------------
6)---------------------------------------- (2veces)


Em
 te veo tan cerca y te siento lejos
                         Am
te abrazo y ya no trasmites calor
   D
estas distraida cuando te hablo
                                Em
y me das la espalda en nuestro lecho de amor

(pre-coro:) (x2)
       Am             D
disimular no sabes disimular
          G             Em
algo me ocultas y lo dejas notar
         C                   B7
estas sacando alguien de tu corazon
          Em
estoy perdiendo fuerzas frente a otro amor

(coro:)
       Em
que paso entre tu y yo
           D
si hasta ayer todo era bonito
       C
que paso entre los dos
        B7
dime quien me roba tu amor

        Em
mas de mi que te puedo dar
             D
si hasta mi vida es tu propiedad
           C
si acaso fue tu amor mentira
        B7
si es asi sabes engañar

                  Em
si que sabes engañar
               Am
todo fue falsedad
       B7
acaba ya con este teatro
                          Em
dime que nunca me pudiste amar

1)---------3-3-2-0---------------------------------3-3-2-0----------
2)-------5---------3-3-2-0-----------------------5---------3-3-2-0--
3)-3-5-5-------------------3--3-4-3-3-4-3--3-5-5-------------------3
4)------------------------------------------------------------------
5)------------------------------------------------------------------
6)------------------------------------------------------------------


1)-------5----------5---5-5-5-7-5--5------
2)-8-8-8---8--8-8-8---8--------------8-7-5
3)----------------------------------------
4)----------------------------------------
5)----------------------------------------
6)---------------------------------------- (2veces)

(pre-coro:) (x2)
       Am             D
disimular no sabes disimular
          G             Em
algo me ocultas y lo dejas notar
         C                   B7
estas sacando alguien de tu corazon
          Em
estoy perdiendo fuerzas frente a otro amor

(coro:)
       Em
que paso entre tu y yo
           D
si hasta ayer todo era bonito
       C
que paso entre los dos
        B7
dime quien me roba tu amor

        Em
mas de mi que te puedo dar
             D
si hasta mi vida es tu propiedad
           C
si acaso fue tu amor mentira
        B7
si es asi sabes engañar

                  Em
si que sabes engañar
               Am
todo fue falsedad
       B7
acaba ya con este teatro
                          Em
dime que nunca me pudiste amar


1)-------5----------5---5-5-5-7-5--5------
2)-8-8-8---8--8-8-8---8--------------8-7-5
3)----------------------------------------
4)----------------------------------------
5)----------------------------------------
6)---------------------------------------- (4 veces)

PAPILON PAPILON LA DEL RICO VACILON !! DE TARAPOTO - PERU!!!

            
            
Suggest correction
Creating personal tab
Creating personal tab
You can edit any tab online and save it as your Personal.

You can edit, replace or remove any tab part or add personal notes – all changes will be seen only by you.

Personal tabs can be accessed anytime from any device, even offline.
Learn more »
Give kudos to tab author, rate the tab!
1 2 3 4 5
comments
print report bad tab
guest
Wanna post a correction for this tab? Suggest correction