Oops, an error
Loading. Please wait.

Rogaré tab

11 views 1 this week
no commentswrite comment
1 2 3 4 5
3 more votes to show rating
add to favorites
×
Save as Personal and add changes to this tab that will be seen only by you. Learn more ›
×
You can save this tab as Personal to edit and correct it or add notes. All changes will be seen only by you. Learn more »
launch autoscroll
font size
0
reset
how to read this tab
guitar tuner
edit
Autoscroll
slow
fast
+/-
esc
set tempo
stop
Ookz esta cancion recien la he sacado sol por punteo con el
tiempo la corregire sobre todo en notas cualkier duda
cenmysbat@  aunk esta facil !! XD suerte !!

Intro #1

1)----------------------------------------------
2)---8-6--------7-7-7-6-5---8-8-8-6---6---------
3)-4-----8-7--------------5---------7---7-------
4)-----------6----------------------------------
5)----------------------------------------------
6)----------------------------------------------

1)----------------------------------------------
2)---8-6--------7-7-7-6-5---8-8-8-6---6---------
3)-4-----8-7--------------5---------7-----------
4)-----------6----------------------------------
5)----------------------------------------------
6)----------------------------------------------

Intro #2

1)----------------------------------------------
2)-6-6-4-4-6-4-6-6-4-4-6-6-6-4-4-8-8-8-8-6-5-4--
3)----------------------------------------------
4)----------------------------------------------
5)----------------------------------------------
6)----------------------------------------------

1)----------------------------------------------
2)-6-6-4-4-6-4-6-6-4-4-6-6-6-4-4-8-8-8-8-6-5-4#-
3)----------------------------------------------
4)----------------------------------------------
5)----------------------------------------------
6)----------------------------------------------

Se me parte el alma
escuchando tus crueles palabras,
mi corazón al oírte con dolor te clama
recapacites y pienses
que será de mi
si vas a dejarme solo aspiro a ser infeliz.

Que dura, que fría y tan cruel
sabias tu ser,lo tierno, lo dulce que eras
quedo en el ayer;
tu voz, tu mirada y desdén
hoy parecen puñales
que abren mi pecho haciendo
que de amor desangre.

Que será de mí si te amo mas que a mi vida
que fácil me hiciste quererte
y hacerte dueña de mi vida,
yo no se rogar
yo tengo mi orgullo
y te juro que en estos momentos
quiero suplicar por tu amor,
voy a rogar por tu amor,
suplicare por tu amor,
voy a rogar por tu amor
no me lo quites por favor.


1)----------------------------------------------
2)---8-6--------7-7-7-6-5---8-8-8-6---6---------
3)-4-----8-7--------------5---------7---7-------
4)-----------6----------------------------------
5)----------------------------------------------
6)----------------------------------------------

1)----------------------------------------------
2)---8-6--------7-7-7-6-5---8-8-8-6---6---------
3)-4-----8-7--------------5---------7-----------
4)-----------6----------------------------------
5)----------------------------------------------
6)----------------------------------------------

1)----------------------------------------------
2)-6-6-4-4-6-4-6-6-4-4-6-6-6-4-4-8-8-8-8-6-5-4--
3)----------------------------------------------
4)----------------------------------------------
5)----------------------------------------------
6)----------------------------------------------

1)----------------------------------------------
2)-6-6-4-4-6-4-6-6-4-4-6-6-6-4-4-8-8-8-8-6-5-4#-
3)----------------------------------------------
4)----------------------------------------------
5)----------------------------------------------
6)----------------------------------------------

Se me parte el alma
escuchando tus crueles palabras,
mi corazón al oírte con dolor te clama
recapacites y pienses
que será de mi
si vas a dejarme solo aspiro a ser infeliz.

Que dura, que fría y tan cruel
sabias tu ser,lo tierno, lo dulce que eras
quedo en el ayer;
tu voz, tu mirada y desdén
hoy parecen puñales
que abren mi pecho haciendo
que de amor desangre.

Que será de mí si te amo mas que a mi vida
que fácil me hiciste quererte
y hacerte dueña de mi vida,
yo no se rogar
yo tengo mi orgullo
y te juro que en estos momentos
quiero suplicar por tu amor,
voy a rogar por tu amor,
suplicare por tu amor,
voy a rogar por tu amor
no me lo quites por favor.

Papillon papillon la del rico vacilon

            
            
Suggest correction
Creating personal tab
Creating personal tab
You can edit any tab online and save it as your Personal.

You can edit, replace or remove any tab part or add personal notes – all changes will be seen only by you.

Personal tabs can be accessed anytime from any device, even offline.
Learn more »
Give kudos to tab author, rate the tab!
1 2 3 4 5
comments
print report bad tab
guest
Wanna post a correction for this tab? Suggest correction