Oops, an error
Loading. Please wait.

Castillos Magicos Españoles bass

by Pappo
35 views 1 this week
no commentswrite comment
1 2 3 4 5
3 more votes to show rating
add to favorites
×
Save as Personal and add changes to this tab that will be seen only by you. Learn more ›
×
You can save this tab as Personal to edit and correct it or add notes. All changes will be seen only by you. Learn more »
launch autoscroll
font size
0
reset
guitar tuner
edit
Autoscroll
slow
fast
+/-
esc
set tempo
stop
Cover del gran Jimmi Hendrix que figura en su disco ?Axis Bold As Love?
de 1967.

?Contemplo este lugar??
G|--------------------------------------------|
D|-------------------------------------66-6-6-|
A|-99-9-9----88-8-8--77-7-7--66-6-6-----------|
E|--------------------------------------------|

?Buscar la explicación??
G|--------------------------------------------|
D|-------------------------------------66-6-6-|
A|-99-9-9----88-8-8--77-7-7--66-6-6-----------|
E|--------------------------------------------|

    ?Castillos españoles,               es en donde realidad tu??
G|----------------------4----------------------------------------
D|-------2-------------2-2----------------------------4----------
A|-11------4-24-4--24-----4-24-4---24-2-------------2-2---------
E|----------------------------------------4-24-4---24----4-24-4--
    *
           ?Pero tu pequeña mente??  ?Castillos españoles?
G|-------------------------------------------------------------------
D|-----------------------------------------------------4-------------
A|----2/6-6-6-6-6-5-4-3-2-2-2-2-2-4-5-6-2-------------2-2------------
E|-24--------------------------------------4-24-4---24-----4-24-4--24

?Si el numero es impar??
G|--------------------------------------------|
D|(44-4-4)-----------------------------66-6-6-|
A|-99-9-9----88-8-8--77-7-7--66-6-6-----------|
E|--------------------------------------------|

?Y tu imaginación??
G|--------------------------------------------|
D|-------------------------------------66-6-6-|
A|-99-9-9----88-8-8--77-7-7--66-6-6-----------|
E|--------------------------------------------|

    ?Castillos españoles,               es en donde realidad tu??
G|----------------------4-----------------------------------------
D|-------2-------------2-2-----------------------------4----------
A|-11------4-24-4--24-----4-24-4---24-2--------------2-2---------
E|----------------------------------------4-24-4---24-----4-24-4--
    *
          Pero tu pequeña mente??  ?Castillos españoles?
G|-------------------------------------------------------------------
D|-----------------------------------------------------4-------------
A|----2/6-6-6-6-6-5-4-3-2-2-2-2-2-4-5-6-2-------------2-2------------
E|-24--------------------------------------4-24-4---24----4-24-4--22-

(empieza el solo de guitarra)
G|--------------------------------------------------------
D|------------------------------------------4---------41--
A|2-------------2-2----------2-2-----------2-2----------4-
E|---4-244---242---4-244--244---4-244---242----4-244------

G|---------------------4------------------------------------
D|----------------------4-----------------4-1---------------
A|2--------------2----2--2-------------------42-------------
E|---4-24-4---242---4------4-24-4-4--24-4--------4-24-4--222

?Castillos españoles,           es en donde realidad tu??
G|----------------------------------------------------------
D|--------------2-2---------------------------4-------------
A|---4-24-4--242---4-24-4---24-2-------------2-2------------
E|0-------------------------------4-24-4--24-----4-24-4--424

           ?Pero tu pequeña mente??  ?Castillos españoles?
G|--------------------------------------------------------------------
D|-----------------------------------------------------4--------------
A|----2/6-6-6-6-6-5-4-3-2-2-2-2-2-4-5-6-2-------------2-2-------------
E|-24--------------------------------------4-24-4---24-----4-24-4--24-

mágicos?
G|--------------1------------------------------------------
D|---------------41----------------------------------------
A|2----------------42-----------2------------2-------------
E|---4-24-4--24------4-24-4--24----4-24-4--24---4-24-4--424

G|-------------------------------------------------------
D|--------------4--------------------------4---------1---
A|2------------2------------2-2-----------2-2---------43-
E|---4-24-4--24---4-24-4--24----4-24-4--24----4-24-4-----

G|-----------4---------------------------4----------
D|------------4---------------6-----------4---------
A|--2----------2---------9--9---2----------2--------
E|4---4-4--24----4-24/11--11------4-4--24----4-24-4-
                       *   *

G|------------- esto es lo ultimo que se escucha del tema
D|------------- ya que termina en fade out
A|--2-4-2-2----
E|4---------4--


*: Lo pongo para que se entienda que es el traste 11
Nota: Cuando anoto, por ejemplo 24 se toca el traste 2 y el 4 rapido
/: slide up
 : slide down
(x): Nota opcional, por ej. (4)

Castillos magicos españoles (Jimmi Hendrix)

Contempla este lugar,
te hará bien de tan solo mirar,
buscarle explicación,
sería como complicar.

Castillos Españoles,
es donde en realidad tú, quisieras ir,
pero tu pequeña mente no te deja ver los
Castillos Españoles.

Si el número es impar,
seguro que alcanzarás, la estrella azul;
y en tu imaginación,
podrás volar en el dragón del sol.

Castillos Españoles,
es dónde en realidad donde tú, quisieras ir,
pero tu pequeña mente no te deja ver los
Castillos Españoles... Mágicos;
no depende de mí.

Castillos Españoles,
es dónde en realidad donde tú, quisieras ir,
pero tu pequeña mente no te deja ver los
Castillos Españoles... Mágicos;
es tu imaginación... la estrella azul

Mientras su musica se siga tocando y escuchando el carpo jamas morira,
vivira eternamente en la memoria de todos...
e-mail: zarathustra4321@

            
            
Suggest correction
Creating personal tab
Creating personal tab
You can edit any tab online and save it as your Personal.

You can edit, replace or remove any tab part or add personal notes – all changes will be seen only by you.

Personal tabs can be accessed anytime from any device, even offline.
Learn more »
Give kudos to tab author, rate the tab!
1 2 3 4 5
comments
print report bad tab
guest
Wanna post a correction for this tab? Suggest correction