Oops, an error
Loading. Please wait.

Cruzando América En Un Taxi bass

by Pappo
70 views 1 this week
no commentswrite comment
1 2 3 4 5
3 more votes to show rating
add to favorites
×
Save as Personal and add changes to this tab that will be seen only by you. Learn more ›
×
You can save this tab as Personal to edit and correct it or add notes. All changes will be seen only by you. Learn more »
launch autoscroll
font size
0
reset
guitar tuner
edit
Autoscroll
slow
fast
+/-
esc
set tempo
stop
          ?Estaba en la universidad?    ?dijiste si?
0:07              (9 veces)
G|-------|--------------------------|------------------------|
D|-------|--------------------------|------------------------|
A|---0-5-|2--2--2-2---2--2-2----0-5-|-2--2--2--2--2--2--2--2-|
E|-2-----|--------------------2-----|------------------------|
        ?y en el taxi?        lo hicimos los dos?
G|--------------------------------------------------------------
D|--------------------------------------------------------------
A|-----------------------------------------------------------7--
E|-0---0-----5---7--7-7-7--7-7-0---0-----5---7--7-7-7--7-7-7---7
          ?el chofer llegaba a Méjico?
G|-------------------------------------
D|-------------------------------------
A|-------------------------------------
E|-0---------5---7---------------------
          ?Exceso de velocidad??           ?Hey!?
0:54              (10 veces)
G|-------|--------------------------|------------------------|
D|-------|--------------------------|------------------------|
A|---0-5-|2--2--2-2---2--2-2----0-5-|-2--2--2--2--2--2--2--2-|
E|-2-----|--------------------2-----|------------------------|
        ?y en el taxi?        lo hicimos otra vez?
G|--------------------------------------------------------------
D|--------------------------------------------------------------
A|-----------------------------------------------------------7--
E|-0---0-----5---7--7-7-7--7-7-0---0-----5---7--7-7-7--7-7-7---7
          ?el chofer llegaba a Méjico?
G|-------------------------------------
D|-------------------------------------
A|-------------------------------------
E|-0---------5---7---------------------
                 (7 veces)
G|-------|--------------------------|------------------------|
D|-------|--------------------------|------------------------|
A|---0-5-|2--2--2-2---2--2-2----0-5-|-2--2--2--2--2--2--2--2-|
E|-2-----|--------------------2-----|------------------------|
2:14
G|---------------------------------------------------------------------|
D|---------------------------------------------------------------------|
A|----------------------4-7--------------------------------------------|
E|-5---5-0---0--0--0--5-----0---0--0--0--0--0--5---5-0---0--0--0--0--0-|
                           ?Exceso de velocidad??
                                   (8 veces)
G|------------------------|--------------------------|
D|------------------------|--------------------------|
A|-2--2--2--2--2--2--2--2-|2--2--2-2---2--2-2----0-5-|
E|------------------------|--------------------2-----|

G|------------------------|
D|------------------------|
A|-2--2--2--2--2--2--2--2-|
E|------------------------|
        ?y en el taxi?        lo hicimos otra vez?
G|--------------------------------------------------------------
D|--------------------------------------------------------------
A|-----------------------------------------------------------7--
E|-0---0-----5---7--7-7-7--7-7-0---0-----5---7--7-7-7--7-7-7---7
          ?y el chofer ya estaba en Mejico?
G|-------------------------------------
D|-------------------------------------
A|-------------------------------------
E|-0---------5---7---------------------
                                             (7 veces)
G|-------|--------------------------|------------------------|
D|-------|--------------------------|------------------------|
A|---0-5-|2--2--2-2---2--2-2----0-5-|-2--2--2--2--2--2--2--2-|
E|-2-----|--------------------2-----|------------------------|

3:36
G|----------------------|-------|----------------------|
D|----------------------|-------|----------------------|
A|-2--2--2--2--5-2-5-2--|---0-2-|5-2--2--2--2--2--2--2-|
E|----------------------|-2-----|----------------------|
                           Final (5 vueltas)
G|------------------------|------------------------|
D|------------------------|------------------------|
A|-2--2--2--2--2--2--2--2-|-2----2------2----2-----|
E|------------------------|------------------------|

Cruzando América en un taxi (Pappo)

Estaba en la universidad, pensando en vos,
cuando de pronto apareció la oportunidad,
entonces te invité a salir, dijiste sí;
y en el taxi, lo hicimos los dos,
el chofer llegaba a Méjico; ah!

Exceso de velocidad, en la prisión,
pasamos una noche entera, juntos tu y yo;
después nos dejaron salir, entramos al bar,
un poco de imaginación, entre humo y alcohol.

Y en el taxi, lo hicimos otra vez;
y el chofer ya estaba en Méjico.

Hey mozo!, una tequila... dos tequilas; ah!

Exceso de velocidad, en la prisión,
pasamos una noche entera, juntos tu y yo;
después nos dejaron salir, entramos al bar,
un poco de imaginación, entre humo y alcohol.

Y en el taxi, lo hicimos otra vez;
y el chofer ya estaba en Méjico

Mientras su musica se siga tocando y escuchando el carpo jamas morira,
vivira eternamente en la memoria de todos...
e-mail: zarathustra4321@

            
            
Suggest correction
Creating personal tab
Creating personal tab
You can edit any tab online and save it as your Personal.

You can edit, replace or remove any tab part or add personal notes – all changes will be seen only by you.

Personal tabs can be accessed anytime from any device, even offline.
Learn more »
Give kudos to tab author, rate the tab!
1 2 3 4 5
comments
print report bad tab
guest
Wanna post a correction for this tab? Suggest correction