Oops, an error
Loading. Please wait.

Desconfío De La Vida tab

version 2
version 2

Whole song

by Pappo
284 views 1 this week
no commentswrite comment
1 2 3 4 5
2 more votes to show rating
add to favorites
×
Save as Personal and add changes to this tab that will be seen only by you. Learn more ›
×
You can save this tab as Personal to edit and correct it or add notes. All changes will be seen only by you. Learn more »
launch autoscroll
font size
0
reset
how to read this tab
guitar tuner
edit
Autoscroll
slow
fast
+/-
esc
set tempo
stop
Esta es una de las mejores canciones del carpo la saque de oido supongo
q esta bien pero como la sque de oido como dije puede llegar a tener algunos
errores en la partes mas veloces para la intro esta bastante bien


Intro:
1|------------------------------------------------------------------------|
2|------------- 7^-7^-7*--7-5/3-5-7-5/3-5---------------------------------|
3|-------7-9-9^----------------------------9^7----------------------------|
4|--7-9----------------------------------------7-5-3-5-2-7-5--------------|
5|------------------------------------------------------------------------|
6|------------------------------------------------------------------------|

1|----------------------------------------------------------------------|
2|----------------------------------------------------------------------|
3|-------------5^---------7^--7^-9^-7^----------------------7-9^--------|
4|-7-5-3-5-7-5---7-5-3-5-----------------7-9-7-7-6-7*---7-9-------------|
5|----------------------------------------------------------------------|
6|----------------------------------------------------------------------|


1|--------------------------------------------------------------------------------|
2|-7-9^9^9^----------7--9-10-9-10-9-10-9-10-9-10-9-10^-10^------------------------|
3|----------9-7*-7-9-----------------------------------------9-7------------------|
4|---------------------------------------------------------------9-7--------------|
5|-------------------------------------------------------------------5-7*---------|
6|--------------------------------------------------------------------------------|


^= Estiramiento hacia arriba
*=Vibrato blusero

Si falta alguna nota improvisar en base

         LA  DO#
No se porque,      imagine
                FA#m
que estabamos unidos
           SI7
me senti mejor
            LA
pero aqui estoy
               SI7   MI7
tan solo en la vida
              LA
que mejor me voy.


DO# FA#m RE#° SI7 MI MI7

Un viejo blues
me hizo recordar
momentos de la vida
MI primer amor
pero aqui estoy
tan solo en la vida
               LA
que mejor me voy.


(Aguante Pappo prohibido olvidar)

            
            
Suggest correction
Creating personal tab
Creating personal tab
You can edit any tab online and save it as your Personal.

You can edit, replace or remove any tab part or add personal notes – all changes will be seen only by you.

Personal tabs can be accessed anytime from any device, even offline.
Learn more »
Give kudos to tab author, rate the tab!
1 2 3 4 5
comments
print report bad tab
guest
Wanna post a correction for this tab? Suggest correction