Oops, an error
Loading. Please wait.

Descortés bass

version 1
version 1

Whole song

Interactive

by Pappo
72 views 1 this week
no commentswrite comment
1 2 3 4 5
3 more votes to show rating
add to favorites
×
Save as Personal and add changes to this tab that will be seen only by you. Learn more ›
×
You can save this tab as Personal to edit and correct it or add notes. All changes will be seen only by you. Learn more »
launch autoscroll
font size
0
reset
guitar tuner
backing track
0:00
0:00
edit
Autoscroll
slow
fast
+/-
esc
set tempo
stop
La parte marcada al principio sirve para todo el tema, yo igualmente por las
dudas les puse todas las vueltas detalladas.
Los renglones marcan el comienzo de cada compas.

   -           -            -           -           -           -             \
?Perdoname, si alguna vez fui descortes, como una hormiga, por el anden?      |
G|--------------------------------------------------------------------------  |
D|-2--2--2--2---------------2--2--2--2--2--2--2--2--2--2--2--2--2--2--2--2--  |
A|---2--2--2---2--2--2--2--2--2--2--2--2--2--2--2--2--2--2--2--2--2--2--2---  |
E|------------2--2--2--2---------------------------------------------------2  |
                                                                              |
   -           -           -              -            -                      |
                                ?siempre hay algo en mi mente, que te hace?   |
G|--------------------------------------------------------------------        |
D|--------------------------------------------------------------------        |
A|-2--2--2--2--2--2--2--1-----------------7--7--7--7------------------        |
E|---2--2--2--2--2--2------5-0-5-0-5-0-5-0--7--7--7--0-5-0-5-0-5-0-5-0        |
                                                                              |
   -           -          -             -           -                         |
?presente, detrás de aquella estrella yo te veo pasar,                        |
G|-------------------------------------------------------------               |
D|--------------------------------------------------------0--1-               |
A|-7--7--7--7-------------------------0-2--2--2--2--2--4-------               |
E|---7--7--7---2--2--2--0-2--2--2--2---------------------------               /

   -            -            -           -           -           -
?la noche vio su brillo, comenzo el descontrol,flota la adrenalina en una nube?
G|---------------------------------------------------------------------------
D|-2--2--2--2----------------2--2--2--2--2--2--2--2--2--2--2--2--2--2--2--2--
A|---2--2--2--0-2--2--2--2--2--2--2--2--2--2--2--2--2--2--2--2--2--2--2--2---
E|----------------2--2--2---------------------------------------------------2

   -           -           -             -            -
?de alcohol?                ?mejor nos vamos a un hotel, alli la pasaremos?
G|-------------------------------------------------------------------
D|-------------------------------------------------------------------
A|-2--2--2--2--2--2--2--1---------4--5-0-7--7--7--7------------------
E|---2--2-----2--2---------5--5--5---------7--7--7--0-5-0-5-0-5-0-5-0

   -           -          -             -           -
?bien, lo importante es estar, juntos tu y yo?
G|-------------------------------------------------------------
D|-------------------------------------------------------------
A|-7--7--7--7-------------------------0-2--2--2--2--2--2--2--2-
E|---7--7--7---2--2--2--0-2--2--2--2---------------------------

   -           -           -           -           -           -
(durante el solo de viola)
G|---------------------------------------------------------------------------
D|-2--2--2--2-----------------2--2--2--2--2--2--2--2--2--2--2--2-------------
A|---2--2--2---2--2--2--2-------2--2--2--2--2--2--2--2--2--2--2--------------
E|------------2--2--2--2---0-------------------------------------0-4--5--6--2

   -           -           -             -            -
G|-------------------------------------------------------------------
D|-------------------------------------------------------------------
A|-2--2--2--2--2--2--2--1-----4--5--6--0-7--7--7--7------------------
E|------2--2--2--2---------5---------------7--7--7--0-5-0-5-0-5-0-5-0

   -           -          -             -            -
                                                       ?perdona-
G|--------------------------------------------------------------
D|---------------------------------------------------9--9--9--9\
A|-7--7--7--7-------------------------0-2--2--2--2/-9-----------
E|---7--7--7---2--2--2--0-2--2--2--2----------------------------

   -           -           -           -           -           -
me, si alguna vez fui descortes, como una hormiga a la deriva por el anden?
G|---------------------------------------------------------------------------
D|-2--2--2--2-----------------2--2--2--2--2--2--2--2--2--2--2--2--2----------
A|---2--2--2---2--2--2--2-------2--2--2--2--2--2--2-----2--2--2--2-----------
E|------------2--2--2--2---0-------------------------------------------0-5--6

   -           -           -              -            -
                            ?siempre hay algo en mi mente, que te hace estar?
G|--------------------------------------------------------------------
D|--------------------------------------------------------------------
A|-2--2--2--2--2--2--2--1--------------6--7--7--7--7------------------
E|------2--2--2--2---------5--5--5-5--5--5--7--7--7--0-5-0-5-0-5-0-5-0

   -           -            -           -            -
presente, detrás de aquella estrella yo te veo pasar?    ?perdona-
G|----------------------------------------------------------------
D|---------------------------------------------------9--9-7--7-6-\
A|-7--7--7--7-------------------------0-2--2--2--2/-6-------------
E|---7--7--7---2--2--2--2-0-2--2--2--2----------------------------

   -           -           -              -
me, si alguna vez fui descortes?
G|---------------------------------------------------------------------
D|-2--2--2--2----------------------------------------------------------
A|---2--2--2---2--2--2--2---------7-------7-7-7-4--0-------------------
E|------------2--2--2--2---0--0--5---0-5-------------------------------


/: slide up (?arrastrar? hacia adelante)
\: slide down (?arrastrar hacia atrás)


Descortes (Pappo)

Perdóname,  si alguna ves fui descortés
como una hormiga, a la deriva por el anden
siempre hay algo en mi mente
que te hace estar presente
detrás de aquella estrella yo te veo pasar

La noche dio en su brillo
comenzó el descontrol
flota la adrenalina
en una nube de alcohol
mejor nos vamos a un hotel
allí la pasaremos bien
lo importante es estar juntos tu y yo

Perdóname, si alguna ves fui descortés
como una hormiga, a la deriva por el anden
siempre hay algo en mi mente
que te hace estar presente
detrás de aquella estrella yo te veo pasar
perdóname, si alguna ves fui descortés


Mientras su musica se siga tocando y escuchando el carpo jamas morira,
vivira eternamente en la memoria de todos.

            
            
Suggest correction
Creating personal tab
Creating personal tab
You can edit any tab online and save it as your Personal.

You can edit, replace or remove any tab part or add personal notes – all changes will be seen only by you.

Personal tabs can be accessed anytime from any device, even offline.
Learn more »
Give kudos to tab author, rate the tab!
1 2 3 4 5
comments
print report bad tab
guest
Wanna post a correction for this tab? Suggest correction