Oops, an error
Loading. Please wait.

Llegará La Paz bass

by Pappo
88 views 3 this week
no commentswrite comment
1 2 3 4 5
3 more votes to show rating
add to favorites
×
Save as Personal and add changes to this tab that will be seen only by you. Learn more ›
×
You can save this tab as Personal to edit and correct it or add notes. All changes will be seen only by you. Learn more »
launch autoscroll
font size
0
reset
guitar tuner
edit
Autoscroll
slow
fast
+/-
esc
set tempo
stop
G|------------------------------------
D|-14|14|14|14|14|14|14|14|14|14|14|14 Parte
A|------------------------------------   A
E|------------------------------------

?Ese monstruoso?
   (20 vueltas)    (3 veces)                                   \
G|--------------|----------------|---------------              |
D|--------------|----------------|---------------              |
A|--------------|----------------|---------------              |
E|-0---3--5-5-7-|-5--5--5--5p3-0-|-5--5--5--5p3--              |
                                                               |Parte
   (3 vueltas)                                                 |  B
G|--------------|--------------------------------------------  |
D|--------------|--------------------------------------------  |
A|--------------|--------------------------------------------  |
E|-0---3--5-5-7-|-0---3--5--6--7-7-7-7-7-7-8---7--3--0-------  |
                                                               /
Repite parte A, B y A.

Durente el solo:
   (4 vueltas)
G|-------------|-----------------------------------------------
D|-------------|-----------------------------------------------
A|-------------|-0---3--5--7-0--3--5--3------------------------
E|-0---3--5--7-|------------------------0---3--5--7-0---3--5--6

G|-------------------------------------------------------------------------
D|--------------------------14|14|14|14|14|14|14|14|14|14|14|14|12--12|9--9
A|-------------------------------------------------------------------------
E|-7-7-7-7-7-7-8---7--3--0-------------------------------------------------

Termina repitiendo parte B.

p: pull off (ligado hacia atras)
x |x : tocar las dos notas consecutivamente rápido por Ej. 14|14

Llegara la paz (Pappo)

Ese monstruoso, que caminando va
no se da cuenta, que no tiene lugar
Y con el tiempo, desaparecera
ese monstruoso, desaparecera

Las facultades, y la electricidad
en muy pocas personas, las puedo encontrar
y sin tu lamento, podria continuar
Y en las estrellas, podre resucitar
Sin pedir nada, solo podre pensar
Que si nos ponemos todos de acuerdo
llegara la paz

            
            
Suggest correction
Creating personal tab
Creating personal tab
You can edit any tab online and save it as your Personal.

You can edit, replace or remove any tab part or add personal notes – all changes will be seen only by you.

Personal tabs can be accessed anytime from any device, even offline.
Learn more »
Give kudos to tab author, rate the tab!
1 2 3 4 5
comments
print report bad tab
guest
Wanna post a correction for this tab? Suggest correction