Oops, an error
Loading. Please wait.

Malas Compañías bass

by Pappo
46 views 1 this week
no commentswrite comment
1 2 3 4 5
3 more votes to show rating
add to favorites
×
Save as Personal and add changes to this tab that will be seen only by you. Learn more ›
×
You can save this tab as Personal to edit and correct it or add notes. All changes will be seen only by you. Learn more »
launch autoscroll
font size
0
reset
guitar tuner
edit
Autoscroll
slow
fast
+/-
esc
set tempo
stop
G|------------------------------------------------------------------
D|------------------------------------------------------------------
A|-7--7-7--------5-7--7-7-5-7--7-7-----------------5-7--7-7-5-7--7-7
E|-------7-5--5-5-----------------7-5--5-5-7-5--5-5-----------------

G|-----------------------------------57
D|----------------------------------7--
A|-----------------5-7--7-7-7-7--7-7---
E|5-7--7-7-7-5--5-5--------------------

?Malas compañías de todos los días, puedes lograr tu insatisfacción
G|---------------------------------
D|---------------------------------
A|7--7-7---------------------------
E|------7-5--5-5-7-5--5-5-7-5--5-5-

G|----------------------------------------------
D|--------5--7h8-7-5-7-5--------5--7h8-7-5-7-5--
A|-7-7-5-7-7------------5----5-7-7------------5-
E|------------------------0-0-------------------

 ?Si tu propia vida no es de mentira, puedes obtener tu solución?
G|-----------------5--56-56-56-56----
D|---------------7---7--7--7--7--7-5-
A|-------3---------------------------
E|-5--5-5--5--5-5--------------------

G|----------------------------------------------
D|--------5--7h8-7-5-7-5--------5--7h8-7-5-7-5--
A|-7-7-5-7-7------------5----5-7-7------------5-
E|------------------------0-0-------------------

Ignora tu calma dentro de tu alma, invocando tu satisfacción?
G|------------------------------------
D|------------------------------------
A|------------------------------4-5-6-
E|-7--7-7-7-7--7--7-5--5-5-5--5-------

G|----------------------------------------------
D|--------5--7h8-7-5-7-5--------5--7h8-7-5-7-5--
A|-7-7-5-7-7------------5----5-7-7------------5-
E|------------------------0-0-------------------

(empieza el solo de guitarra)
G|---------------------------------------------------------
D|---------------------------------------------------------
A|--7-7----------------------------------------------------
E|0--0-7-5--5-5-5-5--5-5-5-5--5-5-5-5--5-5-5-5--5-5-5-5--5-

G|-------------------------------------77-7-7-
D|--------5--7h8-7-5-7-5--------5--7h8---7-7--
A|-7-7-5-7-7------------5----5-7-7------------
E|------------------------0-0-----------------

1:16
G|-----------------------------------------------------
D|---------5h7-755-----------5h7-55--------------------
A|----------------7755-------------77------------------
E|5-5-5-5-------------5-5-5-5---------5-5-5-5--5-5-5-5-

G|----------------------------------------------
D|--------5--7h8-7-5-7-5--------5--7h8-7-5-7-5--
A|-7-7-5-7-7------------5----5-7-7------------5-
E|------------------------0-0-------------------

G|7--------------------12---12---12-
D|-9-------------(12)12---12---12---
A|--97------------5-----------------
E|----77-7--7-7-7-------------------

1:40
G|----------------------------------------------
D|--------5--7h8-7-5-7-5--------5--7h8-7-5-7-5--
A|-7-7-5-7-7------------5----5-7-7------------5-
E|------------------------0-0-------------------

G|-----------------------------------------------------
D|-----------------------------------------------------
A|7--7-7-----------------------------------------------
E|------7-5--5-5-7-5--5-5-7-5--5-5-7-5--5-5-7-5--5-5-7-

G|----------------------------------------------
D|--------5--7h8-7-5-7-5--------5--7h8-7-5-7-5--
A|-7-7-5-7-7------------5----5-7-7------------5-
E|------------------------0-0-------------------

2:03
G|--------12-12|11|11------------------------------454754-
D|-------------------------------5-54-------------7-------
A|-------------------12-12--------------------------------
E|5-5-5-5-----------------5-5-5-5----78785-5-5-5-5--------

G|----------------------------------------------
D|--------5--7h8-7-5-7-5--------5--7h8-7-5-7-5--
A|-7-7-5-7-7------------5----5-7-7------------5-
E|------------------------0-0-------------------

G|------------------------------------------------
D|------------------------------------------------
A|------------------------------------------4-5-6-
E|-7--7-7-7-5-5h7--7-7-7-7-5--5-5-5--5-5-5-5------

G|----------------------------------------------
D|--------5--7h8-7-5-7-5--------5--7h8-7-5-7-5--
A|-7-7-5-7-7------------5----5-7-7------------5-
E|------------------------0-0-------------------

2:33
G|--------------------------------------------------
D|---------------5-7--7-7-7--7-7-7--7-7-7--7-7-7--7-
A|-7--7-7-------------------------------------------
E|-------7-5--5-5-----------------------------------

G|----------------------------------------------
D|--------5--7h8-7-5-7-5--------5--7h8-7-5-7-5--
A|-7-7-5-7-7------------5----5-7-7------------5-
E|------------------------0-0-------------------

(½ cejilla o aca parece que usa un pedal o algo. Prueben tocando solo la
 nota de abajo -la mas aguda- que igual suena bien)
G|---------4|5--------4|5---7|5--------11h12|12-11|11-9|9----------------
D|-7---7|7-4|5---7--7-4|5-7-7|5-7--7-7-11h12|12-11|11-9|9-7--7-7--7--7-7-
A|-7---7|7-------7--7-----7-----7--7-7--------------------7--7-7--7--7-7-
E|-----------------------------------------------------------------------

2:59
G|----------------------------------------------
D|--------5--7h8-7-5-7-5--------5--7h8-7-5-7-5--
A|-7-7-5-7-7------------5----5-7-7------------5-
E|------------------------0-0-------------------

G|-----------------12--12--12-
D|---------------12--12--12---
A|----------------------------
E|7-7057-7-705-5--------------

G|-------------------------------------7-----
D|--------5--7h8-7-5-7-5--------5--7h8--8-5-
A|-----5-7-7------------5----5-7-7-------7-5-
E|-0-0--------------------0-0----------------

?Malas compañias de todos los dias, puedes lograr tu insatisfaccion
G|------------------------------------
D|------------------------------------
A|------------------------------------
E|0--0-0-7-5--5--5-5--5-7578--5-5-5-5-
3:26
G|----------------------------------------------
D|--------5--7h8-7-5-7-5--------5--7h8-7-5-7-5--
A|-7-7-5-7-7------------5----5-7-7------------5-
E|------------------------0-0-------------------

?Si tu propia vida no es de mentira, puedes obtener tu solución?
G|----------------------------------------------
D|------7--------7--------7--------------12-----
A|-------------------------------------12--10-7-
E|5-5-5----5-5-5----5-5-5----5-5-5-5--5---------

G|----------------------------------------------
D|--------5--7h8-7-5-7-5--------5--7h8-7-5-7-5--
A|-7-7-5-7-7------------5----5-7-7------------5-
E|------------------------0-0-------------------

?Ignora tu calma dentro..."             2 veces
G|--------------------------------|---------------|-----|
D|----------9--9-7----------------|---------------|-----|
A|---------9-9--------------4-5-6-|-----5---4---5-|-----|
E|7-7057-7----7----5-5-5-5-5------|-0-------------|--0--|

h: hammer on
| (por ej 12|12): tocar ambos trastes rapido
(12) por ej: nota opcional

No se asusten por lo larga de la tab, usa siempre notas de la
escala pentatonica menor (si mi oido no me falla) dentro de la nota que
esta tocando cuando improvisa y también la escala de blues.
Les puse el tiempo en algunas partes para que se guien con el tema.
Espero que les sirva.
Si le encuentran algun error por favor avisenme al mail.
Mientras su musica se siga tocando y escuchando el carpo jamas morira,
vivira eternamente en la memoria de todos...
e-mail: zarathustra4321@

            
            
Suggest correction
Creating personal tab
Creating personal tab
You can edit any tab online and save it as your Personal.

You can edit, replace or remove any tab part or add personal notes – all changes will be seen only by you.

Personal tabs can be accessed anytime from any device, even offline.
Learn more »
Give kudos to tab author, rate the tab!
1 2 3 4 5
comments
print report bad tab
guest
Wanna post a correction for this tab? Suggest correction