Oops, an error
Loading. Please wait.

Mírese Adentro bass

by Pappo
70 views 1 this week
no commentswrite comment
1 2 3 4 5
3 more votes to show rating
add to favorites
×
Save as Personal and add changes to this tab that will be seen only by you. Learn more ›
×
You can save this tab as Personal to edit and correct it or add notes. All changes will be seen only by you. Learn more »
launch autoscroll
font size
0
reset
guitar tuner
edit
Autoscroll
slow
fast
+/-
esc
set tempo
stop
Esta transcipcion es de su version original del album ?Volumen 5? (1974).
Hay otra version mas facil de tocar en el ?Pappo y amigos?, pero esta que
dejo es mucho mejor (a mi entender).
Si no se quieren complicar la parte que marque al principio alcanza para todo
el tema (el resto lo detalle parte por parte por las dudas), mas la parte
donde acompaña el bajo en el solo del Carpo que básicamente hace pentatonica de
Fa y que detalle compas por compas (los guiones marcan el comienzo de cada uno)
y el final.

G|--------------                                                         \
D|--------------                                                         |
A|-4-4-4--3-3-3-                                                         |
E|--------------                                                         |
                                                                         |
                                              (2 vueltas)                |
G|-----------------------------------|-----------------------------|     |
D|-----------------------------------|--------6------------6-------|     |
A|-----------------------------------|8-8-6-8---8-5---8--6----8-5--|     |
E|-6-6-6-6-6-6-8-9|8|6-6-6-6-6-6-9-6-|--------------6-------------6|     |
                                                                         |
                                                (2 vueltas)              |
G|-------------------------------------|-----------------------------|   |
D|-------------------------------------|--------6------------6-------|   |
A|-------------------------------------|8-8-6-8---8-5---8--6----8-5--|   |
E|-6--6-6--9-8h9-9|8|6-6-4-6-6-9-8h9-6-|--------------6-------------6|   |
                                                                         |
G|---------------------------------------------------------              |
D|----6-----6--------5-----5-------------------------------              |
A|-4----4-4---4-4-3----3-3---3-3--------4-----4-4-4--3-3-3-              |
E|-------------------------------6-6-4----6-4--------------              /

                                         (2 vueltas)
G|------------------------------|-----------------------------|
D|------------------------------|--------6------------6-------|
A|------------------------------|8-8-6-8---8-5---8--6----8-5--|
E|-6--6-6--6-8-9|8|6-6-4--6-9-6-|--------------6-------------6|

?Ven a verme, te quiero mostrar?                    (2 vueltas)
G|----------------------------------------|-----------------------------|
D|----------------------------------------|--------6------------6-------|
A|----------------------------------------|8-8-6-8---8-5---8--6----8-5--|
E|-6-6-6-6-6-6-9-8h9-9|8|6-6-4-6--9-8h9-6-|--------------6-------------6|

?como llueve en la oscuridad?                    (2 vueltas)
G|--------------------------------------|-----------------------------|
D|--------------------------------------|--------6------------6-------|
A|--------------------------------------|8-8-6-8---8-5---8--6----8-5--|
E|-6-6-6-6-8h9-9-9-9|8|6-6-4-6--9-8h9-6-|--------------6-------------6|

?no me cuentes, que es lo que pensas?
G|---------------------------------------------------------
D|----6-----6--------5-----5-------------------------------
A|-4----4-4---4-4-3----3-3---3-3--------4-----4-4-4--3-3-3-
E|-------------------------------6-6-4----6-4--------------

?Nunca hubo, en ningun lugar?                 (2 vueltas)
G|-----------------------------------|-----------------------------|
D|-----------------------------------|--------6------------6-------|
A|-----------------------------------|8-8-6-8---8-5---8--6----8-5--|
E|-6-6-6-6-6-6-9-9|8|6-6-6-6-6-6-9-6-|--------------6-------------6|

?de la tierra, tanta soledad?                 (2 vueltas)
G|----------------------------------|-----------------------------|
D|----------------------------------|--------6------------6-------|
A|----------------------------------|8-8-6-8---8-5---8--6----8-5--|
E|-6-6-6-6-6-6-8-9|8|6-6-4-6--6-9-6-|--------------6-------------6|

?ahora dime, que es lo que pensas??
G|---------------------------------------------------------
D|----6-----6--------5-----5-------------------------------
A|-4----4-4---4-4-3----3-3---3-3--------4-----4-4-4--3-3-3-
E|-------------------------------6-6-4----6-4--------------


   -               -                -              -
G|-----------------------------------------------------------------
D|-----6--6--6h8-6------6----6-------------6--------------6--------
A|-8-8---8---------8-8---8|8--8|8-5-8-8-8---8p6|8--8-8-8---8p6h8--6
E|-----------------------------------------------------------------

   -                -                    -                    -
G|--------------------------------------------------------------------------
D|-----------6----------6----------6---------6----------6-------------6--6|8-
A|-8-8-8---8--8|8-6-8-8---8|6|8-6|8--8|6|8-8---8|6|8-6|8--8|6|8-8--6|8--8----
E|-------8-------------------------------------------------------------------

1:58
   -                 -                -                 -
G|-------------------------------------------------------------------
D|------6|6-6|6|6|6-------6|6-6|8----------6|6-6|6|8|6--------6/13-10
A|-8-8-8-------------8-8-8-------6|8--8-8-8-----------8-8-8--8-------
E|-------------------------------------------------------------------

   -                           -                -
G|--------------------------------------------------------------
D|-------------------------------------6---------------6--8-11-8
A|-8-15p13h15p13h15-13-11-10---8-6|7|8----8p5---8-6|7|8---------
E|--------------------------11---------------6------------------

   -                   -             -           -
G|--------------------------------------------------------------
D|--------6--8|8|8|6---------------------------6--------------6-
A|-8-6|7|8----------8--8--6-8----6---8--6-8--8---8--6-8--6|7|8-8
E|-----------------------------8---8----------------------------

2:19
   -               -               -            -
G|----------------------------------------------------------
D|--------------6------8h10-6----------6------------6-------
A|-8--6-8--6|7|8-8-8-8-------8-6-8-8--6---8-6-8-8--6---8-6-8
E|----------------------------------------------------------

   -           -                  -           -
G|-----------------------------------------------------------
D|----------6----------8|8|8|11-8----------6---------------6-
A|-8--6-8--8-8-8--6-8-------------8--6-8--8-8-8--6-8--6|7|8-8
E|-----------------------------------------------------------

2:33
   -                -           -
G|-------------------------------------------
D|------6-6|6|6----------6----6----------6-8-
A|-8-8-6-------8|6--8-8-8----6--8-8-8-8-8---8
E|--------------------------8----------------

2:39
   -               -                   (4 veces)
G|---------------------------------|----------------|
D|---------------------------------|-------6--------|
A|---------------------------------|-8-8-6----8-5---|
E|-6-6-6-6-6-6-4-6-6-6-6-6-6-6-9-6-|--------------6-|

   -                -                    (4 veces)
G|-----------------------------------|----------------|
D|-----------------------------------|-------6--------|
A|----------4-4h6-4----------4-4h6-4-|-8-8-6----8-5---|
E|-6-6-4-6-6--------6-6-4-6-6--------|--------------6-|

G|-------------------------------------------------------------
D|-----6-----6---------5-----5---------------------------------
A|-4-4---4-4---4-4-3-3---3-3---3-3----------4-----4-4-4--3-3-3-
E|---------------------------------6-6-4-6----6-4--------------

3:09
                                           (4 veces)
G|-------------------------------------|----------------|
D|-------------------------------------|-------6--------|
A|-------------------------------------|-8-8-6----8-5---|
E|-6-6-6-6-6-6-8-9|8|6-6-4-6-6-9-8h9-6-|--------------6-|

                                         (4 veces)
G|-----------------------------------|----------------|
D|-----------------------------------|-------6--------|
A|--------------4-4------------------|-8-8-6----8-5---|
E|-6-6-4-6-6-6p4----6-6-4-6--9|8|9p8-|--------------6-|

G|-------------------------------------------------------------
D|-----6-----6---------5-----5---------------------------------
A|-4-4---4-4---4-4-3-3---3-3---3-3----------4-----4-4-4--3-3-3-
E|---------------------------------6-6-4-6----6-4--------------

?ven a verme, te quiero mostrar?                 (2 veces)
G|------------------------------------|------------------------------|
D|------------------------------------|---------6------------6-------|
A|------------------------------------|-8-8-6-8---8-5---8--6----8-5--|
E|-6-6-6-6-6-6-8-9|8|6-6-4-6--9-8h9-6-|---------------6-------------6|

?como duerme, la comunidad?                        (2 veces)
G|--------------------------------------|------------------------------|
D|--------------------------------------|---------6------------6-------|
A|--------------------------------------|-8-8-6-8---8-5---8--6----8-5--|
E|-6-6-6-6-6-9-8h9-9|8|6-6-4-6--9-8h9-6-|---------------6-------------6|

?ahora dime, que es lo que pensas??
G|-----------6----------------------------------8------------
D|----6----6---6-----5--------------------------6-6-6--8-----
A|-4---4-4-------3-3---3-3-3-4------------4------------6-6-6-
E|-----------------------------6-6-6-4-6----6----------------

Final
G|------------------------------------------------------
D|----10--10|8--------------10--10|8--------------------
A|------------10|8|6----------------10|8|6--------------
E|-8-8---------------6--8-8----------------6-13\5-------


  /: slide up (?arrastrar? hacia adelante)
  \: slide down (?arrastrar hacia atrás)
  p: pull off (ligado hacia atras)
  h: hammer on (ligado)
x|x: tocar las dos notas consecutivamente rápido por Ej. 10|8


Mirese adentro (Pappo - E. D. Beaudoux - E. Garbagnati)

Ven a verme, te quiero mostrar;
cómo llueve, en la oscuridad
no me cuentes qué es lo que pensás

Nunca hubo en ningún lugar,
de la Tierra tanta soledad,
ahora dime, qué es lo que pensás?

Ven a verme te quiero mostrar,
cómo duerme la comunidad,
ahora dime qué es lo que pensás?

Mientras su musica se siga tocando y escuchando el carpo jamas morira,
vivira eternamente en la memoria de todos.

            
            
Suggest correction
Creating personal tab
Creating personal tab
You can edit any tab online and save it as your Personal.

You can edit, replace or remove any tab part or add personal notes – all changes will be seen only by you.

Personal tabs can be accessed anytime from any device, even offline.
Learn more »
Give kudos to tab author, rate the tab!
1 2 3 4 5
comments
print report bad tab
guest
Wanna post a correction for this tab? Suggest correction