Oops, an error
Loading. Please wait.

Pájaro Metálico bass

by Pappo
44 views 1 this week
no commentswrite comment
1 2 3 4 5
3 more votes to show rating
add to favorites
×
Save as Personal and add changes to this tab that will be seen only by you. Learn more ›
×
You can save this tab as Personal to edit and correct it or add notes. All changes will be seen only by you. Learn more »
launch autoscroll
font size
0
reset
guitar tuner
edit
Autoscroll
slow
fast
+/-
esc
set tempo
stop
Otro temazo de ese disco memorable que es Volumen 3 (para mi el
mas ?pesado? de todos sus discos). Esta tablatura es de ese album
de estudio. Para mi mejor que la que venia tocando el ultimo
bajista de Pappo.

G|---------------------------------
D|-7-7-7-7-7-7-7-7-7-7-7-7-7-------
A|---------------------------2-3-4-
E|---------------------------------
                              x2
G|---------------------------------5-----------------5------|
D|--44-55-67-------------------5-7---7-5---------5-7---7-5--|
A|55--------55----------------7----------7------7----------7|
E|-------------88-77-66-5-5-8-------------5-5-8-------------|

G|-------------------------------------------------------------|
D|----------------------------------------------------44-55-67-|
A|-14|14|14|14|14|14|15|15|15--------------44-55-66-77---------|
E|---------------------------15|15|15|16/55--------------------|
0:29 ?Todo se produce en forma material?
G|---------------------------------5-----------------5------|
D|--44-55-67-------------------5-7---7-5---------5-7---7-5--|
A|55--------55----------------7----------7------7----------7|
E|-------------88-77-66-5-5-8-------------5-5-8-------------|
  ?Si vos estas cansado nadie te va a ayudar?
G|---------------------------------5-----------------5------|
D|--44-55-67-------------------5-7---7-5---------5-7---7-5--|
A|55--------55----------------7----------7------7----------7|
E|-------------88-77-66-5-5-8-------------5-5-8-------------|
  ?Por eso es que ahora yo voy a terminar?
G|-------------------------------------------------------------|
D|----------------------------------------------------44-55-67-|
A|-14|14|14|14|14|14|15|15|15--------------44-55-66-77---------|
E|---------------------------15|15|15|16/55--------------------|
0:51 ?Un pajaro sonrie en la oscuridad?
G|---------------------------------5-----------------5------|
D|--44-55-67-------------------5-7---7-5---------5-7---7-5--|
A|55--------55----------------7----------7------7----------7|
E|-------------88-77-66-5-5-8-------------5-5-8-------------|
  ?Siempre estuve pensando como determinar?
G|---------------------------------5-----------------5------|
D|--44-55-67-------------------5-7---7-5---------5-7---7-5--|
A|55--------55----------------7----------7------7----------7|
E|-------------88-77-66-5-5-8-------------5-5-8-------------|
  ?No todas las palabras me dicen la verdad?
G|-------------------------------------------------------------|
D|----------------------------------------------------44-55-67-|
A|-14|14|14|14|14|14|15|15|15--------------44-55-66-77---------|
E|---------------------------15|15|15|16/55--------------------|
                              x2
G|---------------------------------5-----------------5------|
D|--44-55-67-------------------5-7---7-5---------5-7---7-5--|
A|55--------55----------------7----------7------7----------7|
E|-------------88-77-66-5-5-8-------------5-5-8-------------|

G|-------------------------------------------------------------|
D|----------------------------------------------------44-55-67-|
A|-14|14|14|14|14|14|15|15|15--------------44-55-66-77---------|
E|---------------------------15|15|15|16/55--------------------|
1:34 ?Un pajaro sonrie en la oscuridad?
G|---------------------------------5-----------------5------|
D|--44-55-67-------------------5-7---7-5---------5-7---7-5--|
A|55--------55----------------7----------7------7----------7|
E|-------------88-77-66-5-5-8-------------5-5-8-------------|
  ?Siempre estuve pensando como determinar?
G|---------------------------------5-----------------5------|
D|--44-55-67-------------------5-7---7-5---------5-7---7-5--|
A|55--------55----------------7----------7------7----------7|
E|-------------88-77-66-5-5-8-------------5-5-8-------------|
  ?No todas las palabras me dicen la verdad?
G|-------------------------------------------------------------|
D|----------------------------------------------------44-55-67-|
A|-14|14|14|14|14|14|15|15|15--------------44-55-66-77---------|
E|---------------------------15|15|15|16/55--------------------|
  ?por eso es que ahora yo voy a terminar?
G|-------------------------------------------------------------|
D|----------------------------------------------------44-55-67-|
A|-14|14|14|14|14|14|15|15|15--------------44-55-66-77---------|
E|---------------------------15|15|15|16/55--------------------|

G|-------------------------------------------------------------|
D|-------------------------------------------------------------|
A|-14|14|14|14|14|14|15|15|15--------------44-55-67-7-6-5------|
E|---------------------------15|15|15|16/55---------------5----|

Notas:
Cuando pongo 14|15|16 lo significo como traste 14,15,16
/: slide o arrastrar desde un a otro traste

Mientras su musica se siga tocando y escuchando el carpo jamas
morira, vivira eternamente en la memoria de todos...
e-mail: zarathustra4321@

            
            
Suggest correction
Creating personal tab
Creating personal tab
You can edit any tab online and save it as your Personal.

You can edit, replace or remove any tab part or add personal notes – all changes will be seen only by you.

Personal tabs can be accessed anytime from any device, even offline.
Learn more »
Give kudos to tab author, rate the tab!
1 2 3 4 5
comments
print report bad tab
guest
Wanna post a correction for this tab? Suggest correction