Oops, an error
Loading. Please wait.

Pequeña Ala bass

by Pappo
43 views 3 this week
no commentswrite comment
1 2 3 4 5
3 more votes to show rating
add to favorites
×
Save as Personal and add changes to this tab that will be seen only by you. Learn more ›
×
You can save this tab as Personal to edit and correct it or add notes. All changes will be seen only by you. Learn more »
launch autoscroll
font size
0
reset
guitar tuner
edit
Autoscroll
slow
fast
+/-
esc
set tempo
stop
Pappo a este tema de Hendrix lo toca un semitono mas agudo que el original

Repite esto durante casi todo el tema. Puse la letra para guiarse mejor en el
tiempo. Como el bajo se escucha muy ?atrás? con esto es necesario para
acompañar.

?Vienen   ?hacia mi?        ?su mente       ?aquí?                 ?pajaros y?
G|----------------------------------------------------------------------------
D|----------------------------------------------------------------------------
A|-------------------------------1----1--1--1-------------------3----3--3--2--
E|-1----1--1--1---4----4--4--4------------------1----1--1--1------------------
         ?cuentos? ?que?                    ?con el viento?
G|------------------------------------------------------------------------|
D|------------------------------------------------------------------------|
A|-1---1----4--4--4---------------------------4-------6----6--6--6--6-----|
E|---------------------4--4--4---2--2--2----2-----------------------------|


Final
5:11
G|----------------------|---------------------------------
D|----------------------|---------------------------------
A|-6--6--6---6--6--6--?-|-1-------------------------------
E|----------------------|---------------------------------


Pequeña ala (Jimi Hendrix - Traducción: Pappo)

Cuando vienen hacia mí,
su mente está... su mente está aquí;
pájaros y cebras, cuentos que,
viajan con el viento.

Cuando estoy mal, estoy aquí,
miles de sonrisas, ella cambia en mí;
y dice: "Puedes tomar lo que quieras,
lo que quieras de mí".

Viajan con el viento... en tu pequeña ala.


Mientras su musica se siga tocando y escuchando el carpo jamas morira,
vivira eternamente en la memoria de todos.

            
            
Suggest correction
Creating personal tab
Creating personal tab
You can edit any tab online and save it as your Personal.

You can edit, replace or remove any tab part or add personal notes – all changes will be seen only by you.

Personal tabs can be accessed anytime from any device, even offline.
Learn more »
Give kudos to tab author, rate the tab!
1 2 3 4 5
comments
print report bad tab
guest
Wanna post a correction for this tab? Suggest correction