Oops, an error
Loading. Please wait.

Quizás Mañana bass

by Pappo
145 views 1 this week
no commentswrite comment
1 2 3 4 5
3 more votes to show rating
add to favorites
×
Save as Personal and add changes to this tab that will be seen only by you. Learn more ›
×
You can save this tab as Personal to edit and correct it or add notes. All changes will be seen only by you. Learn more »
launch autoscroll
font size
0
reset
guitar tuner
edit
Autoscroll
slow
fast
+/-
esc
set tempo
stop
?Quizás mañana,    mi barca se ira,  detrás de aquel viento,  que?
G|------------------------------------------------------------------
D|------------------------------------------------------------------
A|-----------------------7-------9----------------------------------
E|------------0-------7-------------7-------7--7----------7-------7-
  la hizo llegar,       y con ese viento, también yo me iré, detrás
G|------------------------------------------------------------------
D|-----------------7------------------------------------------------
A|------------7----------7----------7----------7-------7----------7-
E|-7-----------------------------7----------7-------------5---------
  de esa barca,   para siempre tal vez,            como soñándote
G|-------------------------------------------------------------------
D|---------------------------------------7--7----------6-------------
A|------------7---------------------7----------7-7-7-9---7------4---7
E|-5-------5---------5-6-7-------7-------------------------5--5------
     a mar abierta,      por la tormenta,   y frío en mi voz
G|------------------------------------------------------------------
D|------------------------------------------------------------------
A|-----------------7--10------------7-----------------5-6-7----7-7-7
E|-5--5-5-6-7-8--8-------8----8--7---------5-6-7-7--7---------------
gritare tu nombre,    por mas que no pueda yo ni hablar    y me hun-
G|-------------------------------------------------------------------
D|-------------------------------------------------------------------
A|-7-7-7-7-7-7-------4--7-----------------7--10----------------------
E|-------------5---5------5--5-5-6-7-8--8-------8-------8--2---2-4--4
dire en mi soledad?
G|-------------------------
D|-------------------------
A|-------------------------
E|-5---5-6--6-7-7-7-7-7-7-7
 (empieza el solo de viola)
G|------------------------------------------------------------------
D|------------------------------------------------------------------
A|-----------------------7------------------9----------9----------9-
E|------------0-------7---------5-6-7----------7----------7---------

G|------------------------------------------------------------------
D|-----------------7--7-------------------------------5-6-----------
A|------------7----------7------7-7-7-----------------------------7-
E|-7-------7--------------------------------7--0----------5---------
                                                  ?Como soñándote
G|-------------------------------------------------------------------
D|-----------------------------------------------------6-------------
A|------------7---------------------7----------7-7-7-9---7------4---7
E|-5-------5---------5-6-7-------7-------5---5-------------5--5------
     a mar abierta,      por la tormenta,   y frió en mi voz
G|-------------------------------------------------------------------
D|-------------------------------------------------------------------
A|-----------------7--10------------7-----------------5-6-7-7-7-7-7-7
E|-5--5-5-6-7-8--8-------8----8--7---------5-6-7---------------------
gritare tu nombre,    por mas que no pueda yo ni hablar    y me hun-
G|-------------------------------------------------------------------
D|-------------------------------------------------------------------
A|-7-7-7-7-7-7-------4--7-----------------7--10----------------------
E|-------------5---5------5--5-5-6-7-8--8-------8--8-8-7-5-2---2-4--4
dire en mi soledad?
G|-------------------------
D|-------------------------
A|-------------------------
E|-5---5-6--6-7-7-7-7-7-7-7
   ?Quizás mañana,    mi barca se ira,  detrás de aquel viento,  que?
G|------------------------------------------------------------------
D|------------------------------------------------------------------
A|-----------------------7-------9----------------------------------
E|------------0-------7-------------7-------7--7----------7-------7-
  la hizo llegar,       y con ese viento, también yo me iré, detrás
G|------------------------------------------------------------------
D|------------------------------------------------------------------
A|------------7----------7------5-6-7----------7-------7------------
E|-7-------7-------5----------7-------------7-------------5-------5-
  de esa barca,   para siempre tal vez, para siempre tal vez?
G|-------------------------------------------------------------------
D|-------------------------------------------------------------------
A|------------7------------------------------------------------------
E|-5-------5---------5-6-7-------7--0----5---5-0----------0----5---5-
               ?Te quiero nena, y siempre te querré?
G|-------------------------------------------------------------------
D|-------------------------------------------------------------------
A|-------------------------------------------------------------------
E|-0----------0----5---5-0----------0----5---5-0---------------------

Quizás mañana (Pappo)
Quizás mañana mi barca se irá
detrás de aquel viento que la hizo llegar,
y con ese viento tambien yo me iré,
detrás de esa barca para siempre tal vez.

Como soñándote a mar abierta,
con la tormenta y frío en mi voz,
gritaré tu nombre, por más que no pueda yo ni hablar,
y me hundiré en mi soledad. (bis)

Quizás mañana mi barca se irá
detrás de aquel viento que la hizo llegar,
y con ese viento tambien yo me iré,
detrás de esa barca para siempre tal vez.

Te quiero nena, y siempre te querré!


Esta tablatura va dedicada a mi negrita, Nancy.

Mientras su música se siga tocando y escuchando el carpo jamás morirá,
vivirá eternamente en la memoria de todos...
e-mail: zarathustra4321@

            
            
Suggest correction
Creating personal tab
Creating personal tab
You can edit any tab online and save it as your Personal.

You can edit, replace or remove any tab part or add personal notes – all changes will be seen only by you.

Personal tabs can be accessed anytime from any device, even offline.
Learn more »
Give kudos to tab author, rate the tab!
1 2 3 4 5
comments
print report bad tab
guest
Wanna post a correction for this tab? Suggest correction