Oops, an error
Loading. Please wait.

Tomé Demasiado bass

by Pappo
109 views 3 this week
no commentswrite comment
1 2 3 4 5
3 more votes to show rating
add to favorites
×
Save as Personal and add changes to this tab that will be seen only by you. Learn more ›
×
You can save this tab as Personal to edit and correct it or add notes. All changes will be seen only by you. Learn more »
launch autoscroll
font size
0
reset
guitar tuner
edit
Autoscroll
slow
fast
+/-
esc
set tempo
stop
Como la otra tab de este tema no me sonaba para nada hice esta que es
de su disco de album Volumen 8. El bajo lo toca el ?zorrito? Fabián Von
Quintiero.
              (4 veces)
G|-----------------------------------------|
D|-5--2-----2------------------------------|
A|-------5-----5--2-----------2------------|
E|-------------------5--3--5-----0---------|
    ?Yo era un?    tenia perro?       y un dia encontré la botella?
G|------------------------------------------------------------------------
D|------------------------------------------------------------------------
A|-7/d--------------------------------------------------------------------
E|------0------0----------5------5/12/d5----0------0----------5------5/d--
     tome demasiado,   tome demasiado,  oh ye
G|--------------------------------------------
D|--------------------------------------------
A|--------------------------------------------
E|------7------7----------5------5-----0-3--0-

G|------------------------------------------
D|-5--2-----2-------------------------------
A|-------5-----5--2-----------2-------------
E|-------------------5--3--5-----0----------
   ?Y ahora sin?     voy por el?        pateando botellas? vacias de amor?
G|-----------------------------------------------------------------------
D|-----------------------------------------------------------------------
A|-7/d-------------------------------------------------------------------
E|------0------0-------3--5-5-5-5-5-5-5-5---0------0-------3--5---3--5-5-
     tome demasiado,   tome demasiado, oh ye?   ?y hasta todo lo perdi??
G|----------------------------------------------------------------
D|----------------------------------------------------------------
A|----------------------------------------------------7-----------
E|3-5-6-7-7-7-7-7-7-7-7-7-5-5-5-5-5-5-0-3--0----------------------
(empieza el solo de guitarra)
G|----------------------------------------------------------------
D|----------------------------------------------------------------
A|----------------------------------------------------------------
E|-7-7-7-7-7-7-7-7-7-7-7-7-7-7-7-7-5-7-7-7-7-7-7-7-7-7-7-7-7-7-7-7
     ?Whisky, whisky?                                    Rock and?
G|----------------------------------------------------------------
D|----------------------------------------------------------------
A|----------------------------------------------------------------
E|-7-7-7-7-7-7-7-7-7-7-7-7-7-7-7-7-5-7-7-7-7-7-7-7-7-7-7-7-7-7-6--
  roll?
G|----------------------------------------------------------------
D|----------------------------------------------------------------
A|----------------------------------------------------------------
E|-5-5-5-5-5-5-5-5-3-5-5-5-5-5-5-5-5-5-5-5-5-5-5-5-5-5-5-5-3-5-5--
                  ?Hey           Whisky                  Rock and?
G|----------------------------------------------------------------
D|----------------------------------------------------------------
A|----------------------------------------------------------------
E|-7-7-7-7-7-7-7-7-7-7-7-7-7-7-7-7-5-7-7-7-7-7-7-7-7-7-7-7-7-7----
 roll?
G|----------------------------------------------------------------
D|----------------------------------------------------------------
A|----------------------------------------------------------------
E|-3-5-5-5-5-5-5-5-5-5-5-5-5-5-5-5-3-5-5-5-5-5-5-5-5-5-5-5-5-0-3-5

G|---------------------------------
D|---------------------------------
A|-7-------------------------------
E|-0-------------------------------
   ?Yo era un?     tenia perro?       y un dia encontre la botella de?
G|---------------------------------------------------------------------
D|---------------------------------------------------------------------
A|-7/d-----------------------------------------------------------------
E|------0------0----------5-5-5-5-5-5-5-5---0------0----------5-5-5-3-5
     tome demasiado,   tome demasiado, oh ye?
G|-------------------------------------------
D|-------------------------------------------
A|-------------------------------------------
E|3-5-6-7-7-7-7-7-7-7-7-7-5-5-5-5-5-5-0-3--0-
                                         ??Creo que tome un poco de mas??
G|------------------------------------------------------------------------|
D|-5--2-----2-------------------------------------------------------------|
A|-------5-----5--2-----------2-------------------------------------------|
E|-------------------5--3--5-----0----------------------------------------|

En la version de en vivo del disco ?Pappo sigue vivo? (1994) el riff
caracteristico del tema cambia un poco (en mi opinion para mejor) pero
siguen siendo notas de la escala pentatonica de Mi menor:

G|--------------------------------------------|
D|--------------------------------------------|
A|-5h7--5-----5--------------------7----------|
E|---------7-----7--5--3--5--3--0-------------|

 h: hammer on (ligado)
 /: slide up (arrastrar)
/d: slide down (arrastrar ?hacia atrás?)

Tome demasiado (Pappo - F. Ortiz Márquez)

Yo era un hombre bien, tenía perro y mujer,
un día encontré la botella de escocés;
tomé demasiado, tomé demasiado,
oh, yeah.

Ahora sin parar, voy por el callejón,
pateando botellas vacías de amor;
tomé demasiado, tomé demasiado,
oh, yeah.

(Y hasta todo lo perdí)

Whisky, whisky, rock and roll,
whisky, rock and roll.

Yo era un hombre bien, tenía perro y mujer,
un día encontré, la botella de escocés;
tomé demasiado, tomé demasiado,
oh, yeah.

Creo que tomé un poco de más.
Mientras su musica se siga tocando y escuchando el carpo jamas morira,
vivira eternamente en la memoria de todos...
e-mail: zarathustra4321@

            
            
Suggest correction
Creating personal tab
Creating personal tab
You can edit any tab online and save it as your Personal.

You can edit, replace or remove any tab part or add personal notes – all changes will be seen only by you.

Personal tabs can be accessed anytime from any device, even offline.
Learn more »
Give kudos to tab author, rate the tab!
1 2 3 4 5
comments
print report bad tab
guest
Wanna post a correction for this tab? Suggest correction