Oops, an error
Loading. Please wait.

Trén De Las Dieciseis tab

by Pappo
50 views 1 this week
no commentswrite comment
1 2 3 4 5
3 more votes to show rating
add to favorites
×
Save as Personal and add changes to this tab that will be seen only by you. Learn more ›
×
You can save this tab as Personal to edit and correct it or add notes. All changes will be seen only by you. Learn more »
launch autoscroll
font size
0
reset
how to read this tab
guitar tuner
edit
Autoscroll
slow
fast
+/-
esc
set tempo
stop
Intro: D5 C5 G5 D7                    agus_corty@
                                  abajo especifico forma de
                                  tocar los acordes
G5
Yo sólo quiero hacerte el amor,
  C5                            G5
e ir caminando un rato bajo el sol,
  D5             C5         G5  D7
y de un momento a otro te diré,
    G5
que tengo que dejarte otra vez,
    C5                               G5
pero estaremos juntos hasta el amanecer,
   D5                         C5         G5    D7
yo tomo el tren que sale a la hora dieciséis.

solo en base a: G5 C5 G5 D5 C5 G5 C5 G5 D5 C5 G5

1---10-8---7------------7-------10-8---7----------7~--------
2-7------9---9------9-9---9-7--------9---9---8/9~-----------
3--------------9---------------------------9----------------
4-----------------------------------------------------------
5-----------------------------------------------------------
6-----------------------------------------------------------

1--9-7--------9h10------9h12-10-12h15----15-----------------
2-9----9-7----------------------------17----17-15----17p15--
3-------------------------------------------------17--------
4-----------------------------------------------------------
5-----------------------------------------------------------
6-----------------------------------------------------------

1-----------------------------------------------------------
2-------17p15-----------------------------------------------
3-17-15------17----17p15----15-17~15-17-17p15--15-17~15-----
4---------------17-------17------------------17--------17-15
5-----------------------------------------------------------
6-----------------------------------------------------------

1-----------------------------------------------------------
2---17~-17-15-----------------------------------------------
3-17----------17~------------12-15h16-14-12-----------------
4-------------------12-12-15----------------15-12-----------
5-----------------------------------------------------------
6-----------------------------------------------------------

1---------------------------------------12--------------------------
2---15h16-15-13-15-13-----------------15--15-12--12-----------------
3--------------------12-11h12~---12-12---------14--14-12-14h15-12---
4-13-------------------------------------------------------------12~
5-------------------------------------------------------------------
6-------------------------------------------------------------------

1-13h15~--13h15~--13h15-13-11-13-13h15~--13h15~13-11--13h15---------
2---------------------------------------------------13--------------
3-------------------------------------------------------------------
4-------------------------------------------------------------------
5-------------------------------------------------------------------
6-------------------------------------------------------------------

1-13-11--13h14-11-----13h15-------------------------------------------
2------13--------13-11-------12-14-12----------------14~14-12-14-12~--
3--------------------------12--------14-12-----14~-12--------------12~
4-----------------------------------------14-12-----------------------
5---------------------------------------------------------------------
6---------------------------------------------------------------------

1--------------------------17h19-17-15-17-15-----19h20-19-17-19-17---
2-14h16-14-12--12--------15-----------------17~15--------------------
3------------14--14h15~----------------------------------------------
4--------------------------------------------------------------------
5--------------------------------------------------------------------
6--------------------------------------------------------------------

1-----------------------------------------------------------
2-19-17-19~----12h14-12--12--12-----------------------------
3----------------------14--14--14-12~-----------------------
4-----------------------------------------------------------
5-----------------------------------------------------------
6-----------------------------------------------------------
     G5
Que tengo que dejarte otra vez,
    C5                               G5
pero estaremos juntos hasta el amanecer,
    D5                        C5         G5    D7
yo tomo el tren que sale a la hora dieciséis.

G5               C5            D5            D7
---------------/-------------/-------------/--------
---------------/-------------/-------------/--7-----
---------------/-------------/-------------/--5-----
---------------/-5-5-7---5-5-/-7-7-9---7-7-/--7-----
-5-5-7---5-5-7-/-3-3-3-3-3-3-/-5-5-5-5-5-5-/--5-----
-3-3-3-3-3-3-3-/-------------/-------------/--------
MUY BUEN TEMA CHE LO SAQUE POR EL PEDIDO DE BLANCO BUE ASI ES EL MEIL
NI IDEA EL NOMBRE
SUERTE VIVA PAPPO Y NO LE AFLOJEN NUNK A LA GUITARRA
EL SOLO LO SAKE A OIDO A FULL NO ENCONTRE NADA DE AYUDA
EN NINGUNA PAG NI NADA
SI LE VEN ERRORES O QUIENEN APORTARME ALGO agus_corty@

            
            
Suggest correction
Creating personal tab
Creating personal tab
You can edit any tab online and save it as your Personal.

You can edit, replace or remove any tab part or add personal notes – all changes will be seen only by you.

Personal tabs can be accessed anytime from any device, even offline.
Learn more »
Give kudos to tab author, rate the tab!
1 2 3 4 5
comments
print report bad tab
guest
Wanna post a correction for this tab? Suggest correction