Oops, an error
Loading. Please wait.

Vendríamos A Buscar tab

by Pappo
29 views 1 this week
no commentswrite comment
1 2 3 4 5
3 more votes to show rating
add to favorites
×
Save as Personal and add changes to this tab that will be seen only by you. Learn more ›
×
You can save this tab as Personal to edit and correct it or add notes. All changes will be seen only by you. Learn more »
launch autoscroll
font size
0
reset
how to read this tab
guitar tuner
edit
Autoscroll
slow
fast
+/-
esc
set tempo
stop
La adivina [Aeroblus] Pappo
transcripción: Fisu Rock


Riff1

e |-------------------------------------------|
B |-------------------------------------------|
G |-------------------------------------------|    X2
D |----------5--4--5--4-------------7--5------|
A |-----------------------7-------5-----------|
E |-------------------------5--7--------------|

                     SI5
e |------------------------|
B |------------------------|
G |-------------------5----|
D |--------5----------5----|
A |----------5--5-----3----|
E |------------------------|


Riff2

e |--------------------------------------------|
B |--------8--7--h8--7---------------10---8----|
G |---------------------9---------7------------|   X2
D |------------------------7-h-9---------------|
A |--------------------------------------------|
E |--------------------------------------------|

                     SI5
e |----------------------|
B |----5--]-8------------|
G |----------7-7-7]---5--|
D |----------------------|
A |----------------------|
E |----------------------|


SI5    RE5    LA5       SOL5                     MI5  Riff1
   Si acertaste es porque estuvimos con una adivna
SI5    RE5    LA5       SOL5                     MI5  Riff1
   Y ella te dijo que hoy vendriamos a buscarte
SI5        RE5     MI5        SI5        RE5       MIm  Riff1
Huuuuuuu  huuuuuuu huuuuuuu   Huuuuuu huuuuuu huuuuuu

Solo: intro y estrofa

  Si acertaste es porque estuviste con una adivina
  Y ella te dijo que hoy vendriamos a buscarte
  Hooooooo hoooooooooa Haaaaaaa


Creo que es lo mas aproximado que pude hacer y se puede
encontrar por la web.
Espero correcciones.

.::¡¡¡VIVA PAPPO!!!!::.
El Rock and Roll no morira jamás -
Suggest correction
Creating personal tab
Creating personal tab
You can edit any tab online and save it as your Personal.

You can edit, replace or remove any tab part or add personal notes – all changes will be seen only by you.

Personal tabs can be accessed anytime from any device, even offline.
Learn more »
Give kudos to tab author, rate the tab!
1 2 3 4 5
comments
print report bad tab
guest
Wanna post a correction for this tab? Suggest correction