Oops, an error
Loading. Please wait.

Tengo Un Pasajero tab

200 views 1 this week
no commentswrite comment
1 2 3 4 5
3 more votes to show rating
add to favorites
×
Save as Personal and add changes to this tab that will be seen only by you. Learn more ›
×
You can save this tab as Personal to edit and correct it or add notes. All changes will be seen only by you. Learn more »
launch autoscroll
font size
0
reset
how to read this tab
guitar tuner
edit
Autoscroll
slow
fast
+/-
esc
set tempo
stop
esta cancion es simple y santiago gay la dedico


INTRO


e-------------------------------
B-------------------------------
G-9-----------------------------
D-9------9-----9-----9----------
A-7--7-7-7-7-7-7-7-7-7-7-8-8-5-- x7
E-0--0-0-0-0-0-0-0-0-0-0-0-0-0--

VERSO

e------------------------------------
B------------------------------------
G-9------9------9------9-------------
D-9------9-----9-----9-------10-10-----
A-7--7-7-7-7-7-7-7-7-7-7-8-8-8-8------
E-0--0-0-0-0-0-0-0-0-0-0-0-0-0-0------


e-------------------------------
B-------------------------------
G-9-----------------------------
D-9------9-----9-----9----------
A-7--7-7-7-7-7-7-7-7-7-7-8-8-5--
E-0--0-0-0-0-0-0-0-0-0-0-0-0-0--

Siento algo dentro de mi cuerpo
una extraña sensación
siento algo que se mueve dentro
no se bien lo que siento


CORO
(va igual al verso)

Tengo un pasajero
dentro de mi cuerpo


-despues del coro hay una figura diferente-

FA-SOL#-SOL


VERSO 2 (igual al verso y coro)


La sangre me esta ardiendo
algo se me mueve dentro
tengo ganas de vomitar
creo que lo voy a echar

CORO 2 (Igual)

Tengo un pasajero
dentro de mi cuerpo
No puedo mas
ya me estoy cansando
no aguanto mas
tengo que matarlo

FA-SOL#-SOl

al final hay como un intermedio donde suena Mi y se apaga sucesivamente
y el final de la cancion termina en:

FA-SOL#-SOL---MI


Fin

            
            
Suggest correction
Creating personal tab
Creating personal tab
You can edit any tab online and save it as your Personal.

You can edit, replace or remove any tab part or add personal notes – all changes will be seen only by you.

Personal tabs can be accessed anytime from any device, even offline.
Learn more »
Give kudos to tab author, rate the tab!
1 2 3 4 5
comments
print report bad tab
guest
Wanna post a correction for this tab? Suggest correction