Oops, an error
Loading. Please wait.

Prescripción tab

16 views 1 this week
no commentswrite comment
1 2 3 4 5
3 more votes to show rating
add to favorites
×
Save as Personal and add changes to this tab that will be seen only by you. Learn more ›
×
You can save this tab as Personal to edit and correct it or add notes. All changes will be seen only by you. Learn more »
launch autoscroll
font size
0
reset
how to read this tab
guitar tuner
edit
Autoscroll
slow
fast
+/-
esc
set tempo
stop
Intro
E------------
B------------
G--4---------
D--5---------
A--4---------
E--5---------

E--------------------------------
B--------------------------------
G-----4---------------4---------- x4
D-------5----------------5-------
A---------4----------------4-----
E---5-----------5--5-------------

o asi tambien como les suene mejor

E------------
B------------
G--5---------
D--6---------
A--5---------
E--6---------

E--------------------------------
B--------------------------------
G-----5---------------5----------
D-------6----------------6------- x4
A---------5----------------5-----
E---6-----------6--6-------------


Verso el acorde F en los versos es x81010xx y el coro 133211
G
Una insolacion lunar
                             C# F
Una brujula buscando direccion
G
Vamos corriendo a jugar
G                                     C# F
los doctores ya me dieron preescripcion

C                                 G
Mil disculpas si te volvi a asustar
                 A#               F
me suelo emocionar... al verte reir (2)


G
Dame la mano al cruzar
G                                 C# F
el semaforo se ha quedado sin color
G
acompañame a nadar
G                                      C# F
los calambres ya... bajaron su intencion


C                                 G
voy llegando a tu modesta cuestion
                         A#               F
y es que si estamos juntos...me puedo morir
  C                        G
y si el agua inunda mi pulmon
                 A#                  F
tendras otra razon... para beber de mi


E------------
B------------
G--4---------
D--5---------
A--4---------
E--5---------

E--------------------------------
B--------------------------------
G-----4---------------4---------- x4
D-------5----------------5-------
A---------4----------------4-----
E---5-----------5--5-------------

o asi tambien como les suene mejor

E------------
B------------
G--5---------
D--6---------
A--5---------
E--6---------

E--------------------------------
B--------------------------------
G-----5---------------5----------
D-------6----------------6------- x4
A---------5----------------5-----
E---6-----------6--6-------------

G
Una insolacion lunar
G                               C# F
una brujula buscando direccion ahhhh
G
vamos corriendo a jugar
G                                       C# F
los doctores ya me dieron preescripcion ahhh

C                                 G
Mil disculpas si te volvi a asustar
                 A#               F
me suelo emocionar... al verte reir (2)


E------------
B------------
G--4---------
D--5---------
A--4---------
E--5---------

E--------------------------------
B--------------------------------
G-----4---------------4---------- x4
D-------5----------------5-------
A---------4----------------4-----
E---5-----------5--5-------------

o asi tambien como les suene mejor

E------------
B------------
G--5---------
D--6---------
A--5---------
E--6---------

E--------------------------------
B--------------------------------
G-----5---------------5----------
D-------6----------------6------- x4
A---------5----------------5-----
E---6-----------6--6-------------
 hasta final
Acordes  G 3554xx A#6887xx C x355xx F x81010  y 1332x

            
            
Suggest correction
Creating personal tab
Creating personal tab
You can edit any tab online and save it as your Personal.

You can edit, replace or remove any tab part or add personal notes – all changes will be seen only by you.

Personal tabs can be accessed anytime from any device, even offline.
Learn more »
Give kudos to tab author, rate the tab!
1 2 3 4 5
comments
print report bad tab
guest
Wanna post a correction for this tab? Suggest correction