Oops, an error
Loading. Please wait.

Ya Para Qué tab

62 views 1 this week
no commentswrite comment
1 2 3 4 5
3 more votes to show rating
add to favorites
×
Save as Personal and add changes to this tab that will be seen only by you. Learn more ›
×
You can save this tab as Personal to edit and correct it or add notes. All changes will be seen only by you. Learn more »
launch autoscroll
font size
0
reset
how to read this tab
guitar tuner
edit
Autoscroll
slow
fast
+/-
esc
set tempo
stop
Esta cancion va con capo en el traste 2
asi la tocan en vivo
si escuchan bien la cancin les sera mas facil sacar los bajos

Intro

                B
e-----0---0---0---2--2---2--2--------
B-----0---0---0---4--4---4--4--------
G-----0---0---0---4--4---4--4--------
D-----------------------------------2
A-------0---1---2-----------------2--
E---3------------------2------0-3----


 ya para que      preguntas...te amo

          Em                    B
e------------0---0-----0---0-------2---2-----2---2
B------------0---0-----0---0-------4---4-----4---4
G------------0---0-----0---0-------4---4-----4---4
D-------------------------------------------------
A-----------------------------1/2-----------------
E---------0---------3---------------------2-------


ya para que            tu...  buscarme

          Am
e------------0---0-------0---0------0---0
B------------1---1-------4---4------0---0
G------------2---2-------4---4------0---0
D----------------------------------------
A---------0---------1/2------------------
E---------------------------------0------


           si ayer..      yo bote..Basura
               E                      Am
e----0---0---0----0---0-----0---0--------0---0-
B----0---0---0----0---0-----0---0--------1---1-
G----0---0---0----1---1-----1---1--------2---2-
D----------------------------------------------
A------------------------2------------0--------
E--3---2---1---0-------------------------------

      todos.. recuerdos..  Besos..  ya para que
     Am          Em        B                 Em
e------0---0--------0---0-----2---2----------------------
B------1---1--------0---0-----4---4----------------------
G------2---2--------0---0-----4---4----------------------
D---------------------------------------------------2----
A---3---------------------------------------------2------
E----------------0---------3------------------0-3--------


                mira...  quiero..  linda.. interesa
    Em  D   C   B                   Em
e---0---3---0------2---2-----0---0-----0---0------0---0-----
B---0---3---1------4---4-----4---4-----0---0------0---0-----
G---0---2---0------4---4-----4---4-----0---0------0---0-----
D---2---0---2-----------------------------------------------
A---2---0---3-------------2---------------------------------
E---0---0---0---2-------------------0----------3------------


   puesto.. Bandida.. sentimiento
   B
e-----2---2-------2---2-------0---0-------------------------
B-----4---4-------4---4-------0---0-------------------------
G-----4---4-------4---4-------0---0-------------------------
D-----------------------------------------------------------
A--------------2--------------------------------------------
E--3-----------------------0--------------------------------


                mira... importa..  otra..   valora...
    Em  D   C   B                   Em
e---0---3---0------2---2-----2---2-----0---0------0---0-----
B---0---3---1------4---4-----4---4-----0---0------0---0-----
G---0---2---0------4---4-----4---4-----0---0------0---0-----
D---2---0---2-----------------------------------------------
A---2---0---3-------------2---------------------------------
E---0---0---0---2-------------------0----------3------------


 ignora..   pendiente..    hora...
   B
e-----2---2-------2---2-------0---0-------------------------
B-----4---4-------4---4-------0---0-------------------------
G-----4---4-------4---4-------0---0-------------------------
D-----------------------------------------------------------
A--------------2--------------------------------------------
E--3-----------------------0--------------------------------


           ya para que..      tu vuelves..Buscarme
                   E                      Am
e----0---0---0--------0---0-----0---0-----------0---0-
B----0---0---0--------0---0-----0---0-----------1---1-
G----0---0---0--------1---1-----1---1-----------2---2-
D-----------------------------------------------------
A----------------------------2---------------0--------
E--3---2---1-------0----------------------------------

      estoy.. ocupado.. enamorado..  ya para que
     Am          Em        B                 Em
e------0---0--------0---0-------2---2----------------------
B------1---1--------0---0-------4---4----------------------
G------2---2--------0---0-------4---4----------------------
D---------------------------------------------------2------
A---3---------------------------------------------2--------
E----------------0-----------3----------------0-3----------


intermedio

e------------------------------------------------------------0---
B----------------------------------------------------------0---4-
G------------------------------------------------------0-2-------
D---1^1-------1-2-1-------1-2-1-------1-4-2----2---2-4-----------
A-------3-2-3-------3-2-3-------3-2-3--------2---2---------------
E----------------------------------------------------------------


e-------7--7-8-7-------------------
B-----7----------10-8-7-7h8-7------
G---8--------------------------9---
D----------------------------------
A----------------------------------
E----------------------------------


e------------------------0-5---------5--2-3-0-2-3----------2-0----
B----------------------1-----5-7---7-------------------0-1-----4--
G------------1-2-4-1-2-----------5-----------------0-2------------
D----2^2^2-4------------------------------------------------------
A-----------------------------------------------------------------
E-----------------------------------------------------------------


e----2-0-------------------0--
B--------4-1-0-----------0----
G--4-----------2-0-----0------
D------------------4-2--------
A-----------------------------
E-----------------------------


se repite toda la cancion
y al final

      (silencio)     Am
por que no te largas

   (silencio)        Em
vete pa'l carajo

            B                           Em
estoy mu ocupado muy enamorado ya para que


                B  Em
e---------------2--0--
B---------------4--0--
G---------------4--0--
D----------2----4--2--
A--------2------2--2--
E----0-3-----------0--


letra completa


Ya para que regresas si no te amo
ya para que tu vuelves a buscarme
si ayer yo bote a la basura
todos tus recuerdos y todos tus besos
ya para que..

Mira que ya no te quiero
puedes ser muy linda ya no
me interesa lo que llevas
puesto tu haz sido bandida
con mis sentimientos,
mira que ya no me
importa hoy salgo con otra
que si me valora ella no me
ignora ella esta pendiente
de mi a toda hora

ya para que tu vuelves a buscarme
estoy muy ocupados muy
enamorado ya para que

Ya para que regresas si no te amo
ya para que te vuelves a buscarme
si ayer yo bote a la basura
todos tus recuerdos y todos tus besos
ya para que..

Mira que ya no te quiero
puedes ser muy linda ya no
me interesa lo que llevas
puesto tu haz sido bandida
con mis sentimientos,
mira que ya no me
importa hoy salgo con otra
que si me valora ella no me
ignora ella esta pendiente
de mi a toda hora

Ya para que regresas si no te amo
ya para que te vuelves a buscarme
si ayer yo bote a la basura
todos tus recuerdos y todos tus besos
ya para que..

por que no te largas..vete pal^ carajo..
ya estoy muy ocupado muy enamorado ya para que


Es mi primera transcripcion espero les haya gustado.

            
            
Suggest correction
Creating personal tab
Creating personal tab
You can edit any tab online and save it as your Personal.

You can edit, replace or remove any tab part or add personal notes – all changes will be seen only by you.

Personal tabs can be accessed anytime from any device, even offline.
Learn more »
Give kudos to tab author, rate the tab!
1 2 3 4 5
comments
print report bad tab
guest
Wanna post a correction for this tab? Suggest correction