Oops, an error
Loading. Please wait.

Duele Amar tab

44 views 1 this week
no commentswrite comment
1 2 3 4 5
3 more votes to show rating
add to favorites
×
Save as Personal and add changes to this tab that will be seen only by you. Learn more ›
×
You can save this tab as Personal to edit and correct it or add notes. All changes will be seen only by you. Learn more »
launch autoscroll
font size
0
reset
how to read this tab
guitar tuner
edit
Autoscroll
slow
fast
+/-
esc
set tempo
stop
hola a todos espero q les guste esta colavoracion mando saludos a
todo mi colegio sainz al curso 3ro e los desputeros promo 2013
rasgueo huayño

a qi esta no suena como la origuinal pero se defiende jejejej


intro
1------------------9/11-9-7---12-15-12-15-14-12/10---------
2---6/8-8-8-8-9-11-9/11-9-7------------------------12------
3---6/8-8-8-8-9-11-----------------------------------------
4----------------------------------------------------------
5----------------------------------------------------------
6---------------------------------------------------------
esto se repite
1------------------9/11-9-7---12-15-12-15-14-12/10---------
2---6/8-8-8-8-9-11-9/11-9-7------------------------12------
3---6/8-8-8-8-9-11-----------------------------------------
4----------------------------------------------------------
5----------------------------------------------------------
6----------------------------------------------------------
a qui va la kena vercion guitarra espero qles guste

1---------------------------------------------------------
2---------------------------------------------------------
3---9/10-10-10-11-10-9---10/12-12-12-13-12-10-------------
4---------------------------------------------------------
5---------------------------------------------------------
6---------------------------------------------------------

y el final

1---12-15-12-15-12-10-----
2---------------------12--
3-------------------------
4-------------------------
5-------------------------
6-------------------------
Suggest correction
Creating personal tab
Creating personal tab
You can edit any tab online and save it as your Personal.

You can edit, replace or remove any tab part or add personal notes – all changes will be seen only by you.

Personal tabs can be accessed anytime from any device, even offline.
Learn more »
Give kudos to tab author, rate the tab!
1 2 3 4 5
comments
print report bad tab
guest
Wanna post a correction for this tab? Suggest correction