Oops, an error
Loading. Please wait.

Yo No Te Olvido tab

67 views 1 this week
no commentswrite comment
1 2 3 4 5
3 more votes to show rating
add to favorites
×
Save as Personal and add changes to this tab that will be seen only by you. Learn more ›
×
You can save this tab as Personal to edit and correct it or add notes. All changes will be seen only by you. Learn more »
launch autoscroll
font size
0
reset
how to read this tab
guitar tuner
edit
Autoscroll
slow
fast
+/-
esc
set tempo
stop
Hola mi nombre es ?edson veliz? y ahí les mando toda la cancion mas
su punteada y bajo, esta cancion se la quiero dedicar para esa persona
K cambio mi vida, cada momento k pasa pienso en ti, pues yo no te
olvido, mary tam.

INTRO:
e|--2/3-3-3-3-3/2--3-3-3-3-3/2--2-0-2-0--------0-2-0-----|
B|--------------------------------------3-3--3-------3-3-|
G|-------------------------------------------------------|

e|----0-2-3--2-3--0-2-3-5-5-4-3-2-0-0--|
B|--3----------------------------------|
G|-------------------------------------|

ESTA PARTE LA ACOMPAÑA CON LA QUENA: (es opcional)
e|--2/3-3-3-3-3/2--3-3-3-3-3/2--2-0-2-0---------0-2-0-----|
B|---------------------------------------3-3--3-------3-3-|
G|--2/3-3-3-3-3/2--3-3-3-3-3/2--2-1-2-1--2-2--2-0-2-1-2-2-|

e|---0-2-3--2-3--0-2-3-5-5-4-3-2-0-0--|
B|-3----------------------------------|
G|-2-0-2-3--2-3--0-2-3-5-5-4-3-2-1-1--|

BAJO:
D|-4-2----------|
A|-----4-5------|
E|--------------|
D
Fue lo mejor
   F#
me dije asi
        Bm
cuando yo te perdi
          G           A
Me resigne a vivir,lejos de ti

D
Y ahora se
      F#
que fue un error
        Bm
Alejarme de ti
         G               A
Por que vivir asi, ya no es vivir

Coro:

       D
Yo no te olvido amor
F#            Bm
Noooo, yo no te olvido
            G
Aunque he querido
         E                A
Note puede mentir, mi corazón.

       D
Yo no te olvido amor
F#             Bm
Noooo, yo no te olvido
         G
cuanto he sufrido
        Em                A
lejos de ti lloró, mi corazón

AQUÍ LA PUNTEADA COMPLETA Y EL BAJO

D
Fue lo mejor
F#
pensaba asi
         Bm
pero mi corazón
            G                A
te ha amado de verdad, no sabe olvidar

D
Y ahora se
      F#
que fue un error
        Bm
Alejarme de ti
         G             A
Por que vivir asi, ya no es vivir

AQUÍ SE REPITE EL CORO


Espero que les haya gustado, si tienen algo k preguntar  mi
correo es brentoped_34u@ chauuuuuuuuuuuuuuuuuuuuu!

            
            
Suggest correction
Creating personal tab
Creating personal tab
You can edit any tab online and save it as your Personal.

You can edit, replace or remove any tab part or add personal notes – all changes will be seen only by you.

Personal tabs can be accessed anytime from any device, even offline.
Learn more »
Give kudos to tab author, rate the tab!
1 2 3 4 5
comments
print report bad tab
guest
Wanna post a correction for this tab? Suggest correction