Oops, an error
Loading. Please wait.

El Último Vals tab

82 views 1 this week
no commentswrite comment
1 2 3 4 5
3 more votes to show rating
add to favorites
×
Save as Personal and add changes to this tab that will be seen only by you. Learn more ›
×
You can save this tab as Personal to edit and correct it or add notes. All changes will be seen only by you. Learn more »
launch autoscroll
font size
0
reset
how to read this tab
guitar tuner
edit
Autoscroll
slow
fast
+/-
esc
set tempo
stop
Esta es mi 3ra publicación, hice esta transcripción
para dos guitarras uno para los acordes y el otro para
el TAB.


[1]
               G      F#     G
e[-------------7----7-6----6-7-----------]
B[------7--------------------------------]
G[--7-9---9-7----------------------------]

               Am     E         Am
e[-------------8----8-7----10-9-8--------]
B[------7--------------------------------]
G[--7-9---9-7----------------------------]

                    D
e[------------------10-------------------]
B[--------10-----------------------------]
G[--11-12----12-11-----11-11-------------]

               Am         Bm     G
e[-------------8----------7----7---------]
B[------7------------------------8-------]
G[--7-9---9-7----9-9---7-----------------]


[2]
           (G)
e[--7-6-5-4-3--]


[3]
              (G)
e[----------------]
B[--0-1---2----0--]


[4]
    G
e[---------------]
B[----------0-0--]
G[--0-0-2-2------]


[1], [2], [3] y [4] serán los nombres de los punteos.

Ahí empieza la canción...


INTRO: [1] [2]

              Am    D
Recuerdas ese vals
              G     Em
y ese beso apurado
                  Am  D
que te dejé al partir
                 G   [2]
y en ti quedó grabado.
              Am   D
Es tanto mi dolor
                   G     Em
que me destroza el alma
                  Am
desde que tú no estás
     D     G  [4]
te quiero más...

e[--------------0-2-3-----2-3-2-0--]
B[--1--0-1-2-----------------------]
    Am     D        G        Em
 ... Y  sabrás que  no olvidarás

     Am    D      G           G7
no importa si me quieres al final...

e[-------------------0-2-3---2-3-2-0--]
B[----------0-1-2---------------------]
G[--0-0-2-2---------------------------]
        Am      D        G      Em
     ...So--ña-rás   y   vi--vi-rás

    A        D
en la felicidad.

              Am    D
Recuerdas ese vals
              G     Em
y ese beso apurado
                  Am  D
que te dejé al partir
                 G   [3]
y en ti quedó grabado.

REP: [1] [2]

REP: Es tanto mi dolor.../
         A        D  D#
 /...en la felicidad

REP: Y sabrás.../
         A        D
 /...en la felicidad

              Am    D
Recuerdas ese vals
              G     Em
y ese beso apurado
                  Am  D
que te dejé al partir
                 G   [3]
y en ti quedó grabado.

(a ritmo de vals)
REP: [1] [1]...


Muy pronto............."Amor amor amor" - Nilton César


MIS PUBLICACIONES:

1) "Lo pasado pasado" - José José
2) "Prometimos no llorar" - Palito Ortega

            
            
Suggest correction
Creating personal tab
Creating personal tab
You can edit any tab online and save it as your Personal.

You can edit, replace or remove any tab part or add personal notes – all changes will be seen only by you.

Personal tabs can be accessed anytime from any device, even offline.
Learn more »
Give kudos to tab author, rate the tab!
1 2 3 4 5
comments
print report bad tab
guest
Wanna post a correction for this tab? Suggest correction