Oops, an error
Loading. Please wait.

Comezón bass

version 2
version 2

Whole song

20 views 1 this week
no commentswrite comment
1 2 3 4 5
3 more votes to show rating
add to favorites
×
Save as Personal and add changes to this tab that will be seen only by you. Learn more ›
×
You can save this tab as Personal to edit and correct it or add notes. All changes will be seen only by you. Learn more »
launch autoscroll
font size
0
reset
guitar tuner
edit
Autoscroll
slow
fast
+/-
esc
set tempo
stop
YA SE QUE YA ESTA ESTE TAB, PERO NO SE DE QUE VERSIÃ?N ES,
POR QUE LE HACE FALTA BASTANTE.
ESTE ES EL TAB PARA LA CANCIÃ?N QUE ESTA EN EL NUEVO DISCO
ESPERO QUE LO ACEPTEN 


AFINACIÃ?N ESTANDAR (E,A,D,G)

EMPIEZA LA GUITARRA CON LA BATERIA
Y DESPUÃ?S ENTRAS CON UN SLIDE

INTRO:
G---------------------------------------------------------
D-9/2---2-2-5-2----------2-25-2----------2-25-2---------
A---------------2-25-2----------2-25-2----------2-25-2-
E---------------------------------------------------------

---------------5/7--5--------------
-----------------------53---------
-5-5-5-5-5-5-----------------5-5---	
-----------------------------------

-------------------------------------------------------------------
---2-25-2----------2-25-2----------2-25-2------------------------
-----------2-25-2----------2-25-2----------2-25-2--5-5-5-5-5-5-5-
--------------------------------------------------------------------

1er VERSO:
---------------------------------------------------------------------
---2-25-2----------2-25-2----------2-25-2-------------------------   (X2)
-----------2-25-2----------2-25-2----------2-25-2--5-5-5-5-5-5-5--
---------------------------------------------------------------------

1er CORO: 
------4--7---5---------8--11---9--------6-9--9-5-------6-99-10---
--5----------------9----------------77-------------77-------------
------------------------------------------------------------------  
------------------------------------------------------------------

------4--7---5---------8--11---9--------6-9--9-5-------6-99-7----
--5----------------9----------------77-------------77----------7/-
------------------------------------------------------------------  
------------------------------------------------------------------

2do VERSO: (X2)
-------------------------------------------------------------------
--2-25-2----------2-25-2----------2-25-2-------------------------   
----------2-25-2----------2-25-2----------2-25-2--5-5-5-5-5-5-5--
--------------------------------------------------------------------

2do CORO:  (X4)
-----------------------------------------------------6-9-9-10-(EN ESTA ULTIMA PARTE
-5-5-5-5-5-5-5-5-9-9-9-9-9-9-9-9-7-7-7-7-7-7-7-7-7-7-----------HAY ALGUNAS PEQUEÃ?AS   
---------------------------------------------------------------VARIACIONES)
---------------------------------------------------------------        

INTERLUDIO: (X2)  (donde la guitarra toca el solo)   
--------------------------------------------------------------------
--------------------------------------------------------------------  
-----------------2-2-2-2-2-2-2-2------------------------------------  
-3-3-3-3-3-3-3-3-----------------5-5-5-5-5-5-5-5-5-5-5-5-5-5-5-5-5-5


PUENTE:     
--------------------------------------------------------------------------
---2-25-2----------2-25-2-2/99-12-9-11-9/--2-25-2-------------------------
-----------2-25-2----------------------------------2-25-2--5-5-5-5-5-5-5--
--------------------------------------------------------------------------


3er CORO (X4) (igual que el 2do)


OUTRO: 
--------------------
--------------------
----------2-2-------
--3-3-----------5--

            
            
Suggest correction
Creating personal tab
Creating personal tab
You can edit any tab online and save it as your Personal.

You can edit, replace or remove any tab part or add personal notes – all changes will be seen only by you.

Personal tabs can be accessed anytime from any device, even offline.
Learn more »
Give kudos to tab author, rate the tab!
1 2 3 4 5
comments
print report bad tab
guest
Wanna post a correction for this tab? Suggest correction