Oops, an error
Loading. Please wait.

Comezón tab

102 views 1 this week
no commentswrite comment
1 2 3 4 5
3 more votes to show rating
add to favorites
×
Save as Personal and add changes to this tab that will be seen only by you. Learn more ›
×
You can save this tab as Personal to edit and correct it or add notes. All changes will be seen only by you. Learn more »
launch autoscroll
font size
0
reset
how to read this tab
guitar tuner
edit
Autoscroll
slow
fast
+/-
esc
set tempo
stop
Bueno pos ay les dejo esta cancion del mas reciente album de pastilla 'Hey'

 Intro:
1------------------------------------------------------------------
2------------------------------------------------------------------
3------------------------------------------------------------------
4---22--52----------22--52----------22--52-------------------------
5-----------22--52----------22--52----------22--52--5-5-5-5-5-5-5--
6------------------------------------------------------------------

guitarra 2:

1-----------------------------
2-----------------------------
3--4-4-2-0-2-0-4-4-2-0-2-0-7--  varias veces
4-----------------------------
5-----------------------------
6-----------------------------


Verso:

 Deja de buscar una forma mas.........

1------------------------------------------------------------------
2------------------------------------------------------------------
3------------------------------------------------------------------
4---22--52----------22--52----------22--52-------------------------
5-----------22--52----------22--52----------22--52--5-5-5-5-5-5-5--
6------------------------------------------------------------------

guitarra 2:

1-----------------------------
2-----------------------------
3--4-4-2-0-2-0-4-4-2-0-2-0-7--  varias veces
4-----------------------------
5-----------------------------
6-----------------------------


 Todo esta tan gris todo sigue igual........


1------------------------------------------------------------------
2------------------------------------------------------------------
3------------------------------------------------------------------
4---22--52----------22--52----------22--52-------------------------
5-----------22--52----------22--52----------22--52--5-5-5-5-5-5-5--
6------------------------------------------------------------------

guitarra 2:

1-----------------------------
2-----------------------------
3--4-4-2-0-2-0-4-4-2-0-2-0-7--  varias veces
4-----------------------------
5-----------------------------
6-----------------------------

Coro:

tal vez,tal vez una vida mas.........
comezon,comezon en el corazon........

1-----------------------------------
2-----------------------------------
3----------------------------------- 4 veces
4--555555555--99999999--77777777----
5--555555555--99999999--77777777----
6--333333333--77777777--55555555----

al final de la cancion termina con esto:

1-----------------
2-----------------
3-----------------
4--55--33--10-----
5--55--33- 10-----
6--33--11-- 8-----


bueno pos ay les dejo esta cancion ojala que les guste ya se que no esta
buena pero ay la saque para ustedes,saludos a toda la banda de cancun.

            
            
Suggest correction
Creating personal tab
Creating personal tab
You can edit any tab online and save it as your Personal.

You can edit, replace or remove any tab part or add personal notes – all changes will be seen only by you.

Personal tabs can be accessed anytime from any device, even offline.
Learn more »
Give kudos to tab author, rate the tab!
1 2 3 4 5
comments
print report bad tab
guest
Wanna post a correction for this tab? Suggest correction