Oops, an error
Loading. Please wait.

Energía tab

63 views 1 this week
no commentswrite comment
1 2 3 4 5
3 more votes to show rating
add to favorites
×
Save as Personal and add changes to this tab that will be seen only by you. Learn more ›
×
You can save this tab as Personal to edit and correct it or add notes. All changes will be seen only by you. Learn more »
launch autoscroll
font size
0
reset
how to read this tab
guitar tuner
edit
Autoscroll
slow
fast
+/-
esc
set tempo
stop
ENERGIA

x - esa cuerda no suena

mi m    022000
la m7   x02010
re      x54030
sol     320003


**ARREGLO 1**      »» - se desliza hacia el otro traste

1a--5--3------------------------------------------5--3-----------
2a--------5--3--5---------------------------------------5--3--5--
3a---------------------------------------------------------------
4a---------------------------------------------------------------
5a-----------------10-10-10-10--7--7--9--9--9--9-----------------
6a------------------0--0--0--0--0--0--0--0--0--0-----------------

1a---------------------------------------------------------------
2a---------------------------------------------------------------
3a---------------------------------------------------------------
4a--------------------------7--9--7--9--7--9--7--5---------------
5a-10-10-10-10--7--7--9--9---------------------------------------
6a--0--0--0--0--0--0--0--0--0--0--0--0--0--0--0--0---------------

1a---------------------------------------------------------------
2a---------------------------------------------------------------
3a---------------------------------------------------------------
4a---------------------------------------------------------------
5a-10-10-10-10--7--7--9--9»10»»9»»7»»5---------------------------
6a--0--0--0--0--0--0--0--0»»0»»0»»0»»0---------------------------

**ARREGLO 2**

1a---------------------------------------------------------------
2a--0»»1--0-----0»»1--0------------------------------------------
3a-----------0-----------0-----0»»2--0--0»»2--0--0»»2»4»»2--0----
4a---------------------------------------------------------------
5a--------------------------------------------------------------
6a---------------------------------------------------------------

1a---------------------------------------------------------------
2a--0»»1--0-----0»»1--0------------------------------------------
3a-----------0-----------0-----0»»2--0--0»»2--0--0»»2»4»»2--0----
4a---------------------------------------------------------------
5a---------------------------------------------------------------
6a---------------------------------------------------------------


MI m MI m (**ARREGLO 1**)
mi m mi m (**ARREGLO 1**)

LA m7   RE
LA m7   RE

SOL   MI m (**ARREGLO 2**)
SOL   MI m (**ARREGLO 2**)

SOL                  MI m
Me arrancaste mi energia
SOL                  MI m
con tus puños de claveles
SOL                  MI m
me enterraste con tus uñas
SOL                MI m
en la tierra inferior

LA m7     RE
Y aqui estoy
LA m7   RE?
me escape
LA m7       RE?
en forma de una luz
   LA m7
violeta

SOL    MI m (**ARREGLO 2**)
SOL    MI m (**ARREGLO 2**)

SOL               MI m
Viajo a toda energia
SOL               MI m
entre toda esta materia
SOL          MI m
te quiero decir
SOL           MI m
te quiero enseñar

LA m7     RE
Y aqui estoy
LA m7    RE
me escape
LA m7       RE
envuelto en una luz
    LA m7
violeta

SOL    MI m  (**ARREGLO 2**)
SOL    MI m  (**ARREGLO 2**)

MI m   MI m  (**ARREGLO 1**)
MI m   MI m  (**ARREGLO 1**)

            
            
Suggest correction
Creating personal tab
Creating personal tab
You can edit any tab online and save it as your Personal.

You can edit, replace or remove any tab part or add personal notes – all changes will be seen only by you.

Personal tabs can be accessed anytime from any device, even offline.
Learn more »
Give kudos to tab author, rate the tab!
1 2 3 4 5
comments
print report bad tab
guest
Wanna post a correction for this tab? Suggest correction