Oops, an error
Loading. Please wait.

Lágrimas tab

version 1
version 1

Whole song

48 views 1 this week
no commentswrite comment
1 2 3 4 5
3 more votes to show rating
add to favorites
×
Save as Personal and add changes to this tab that will be seen only by you. Learn more ›
×
You can save this tab as Personal to edit and correct it or add notes. All changes will be seen only by you. Learn more »
launch autoscroll
font size
0
reset
how to read this tab
guitar tuner
edit
Autoscroll
slow
fast
+/-
esc
set tempo
stop
Esta canción se la voy a dedicar a una chica q robo mi corazon
y q aunque no lo sepa la quiero mucho y q forma parte de mi corazon
te la dedico a ti Nataly te quiero mucho
Intro

Guitarra 1
e |-5--5--5--5--5--5--5--5--5--5--5--5--5--5--5--5--5--5--5--|
B |----------------------------------------------------------|
G |----------------------------------------------------------|

Guitarra 2
e |-------------------------------------|
B |-------------------------------------| en el 12avo sonido de la
G |-------------------------------------| Guitarra 1 entra la
D |--7-7-7-7-7-7-7-7-7-7-7-7-7----------| Guitarra 2
A |--7-7-7-7-7-7-7-7-7-7-7-7-7--Stop----|
E |--5-5-5-5-5-5-5-5-5-5-5-5-5----------|

    A5(x6)      A5/G5 G5  A5(x6)    A5/G5 G5  A5(x6)      A5/G5 G5
e |---------------------------------------------------------------|
B |---------------------------------------------------------------|
G |---------------------------------------------------------------|
D |--7-7-7-7-7-7-7/5--5---7-7-7-7-7-7-7/5--5---7-7-7-7-7-7-7/5--5-|
A |--7-7-7-7-7-7-7/5--5---7-7-7-7-7-7-7/5--5---7-7-7-7-7-7-7/5--5-|
E |--5-5-5-5-5-5-5/3--3---5-5-5-5-5-5-5/3--3---5-5-5-5-5-5-5/3--3-|
                                               Yo siento hundirme

    A5(x6)      A5/G5 G5   A5(x4)  D5(x7)
e |-----------------------------------------------------|
B |-----------------------------------------------------|
G |---------------------------------7-7-7-7-7-7-7-7-----|
D |--7-7-7-7-7-7-7/5--5---7-7-7-7---7-7-7-7-7-7-7-7-----|
A |--7-7-7-7-7-7-7/5--5---7-7-7-7---5-5-5-5-5-5-5-5-----|
E |--5-5-5-5-5-5-5/3--3---5-5-5-5-----------------------|
     y me estremezco      si veo caer tus lágrimas

E5(x20)
e -----------------------------------------------
B -----------------------------------------------
G --9-9-9-9-9-9-9-9-9-9-9-9-9-9-9-9-9-9-9-9------
D --9-9-9-9-9-9-9-9-9-9-9-9-9-9-9-9-9-9-9-9------
A --7-7-7-7-7-7-7-7-7-7-7-7-7-7-7-7-7-7-7-7------
E -----------------------------------------------
    Yo me arrepiento del mal que te haya hecho si veo caer tus

     A5(x6)     A5/G5 G5  A5
e |----------------------------------------------------|
B |----------------------------------------------------|
G |----------------------------------------------------|
D |--7-7-7-7-7-7-7/5--5---7--Stop---Distor...max-------|
A |--7-7-7-7-7-7-7/5--5---7----------------------------|
E |--5-5-5-5-5-5-5/3--3---5----------------------------|
     Lágrimas

     A5(x6)     A5/G5 G5  A5(x6)     A5/G5 G5   A5(x4)
e |--------------------------------------------------------
B |--------------------------------------------------------
G |--------------------------------------------------------
D |--7-7-7-7-7-7-7/5--5---7-7-7-7-7-7-7/5--5---7-7-7-7-----
A |--7-7-7-7-7-7-7/5--5---7-7-7-7-7-7-7/5--5---7-7-7-7-----
E |--5-5-5-5-5-5-5/3--3---5-5-5-5-5-5-5/3--3---5-5-5-5-----
     Yo te consuelo        te abrazo y te beso  si veo caer tus

      D5(x8)                  A5(x4)    B5(x4)
e |-------------------------------------------------
B |-------------------------------------------------
G |-7-7-7-7-7-7-7-7---------------------------------
D |-7-7-7-7-7-7-7-7----------7-7-7-7---9-9-9-9------
A |-5-5-5-5-5-5-5-5----------7-7-7-7---9-9-9-9------
E |--------------------------5-5-5-5---7-7-7-7------
    Lágrimas y no quisiera ya nunca     volver a enjugar tus

E5(x16)
e |---------------------------------------|
B |---------------------------------------|
G |-9-9-9-9-9-9-9-9-9-9-9-9-9-9-9-9-------|
D |-9-9-9-9-9-9-9-9-9-9-9-9-9-9-9-9-------|
A |-7-7-7-7-7-7-7-7-7-7-7-7-7-7-7-7-------|
E |---------------------------------------|
    Lágrimas

Coro:

A5(x16)
e |----------------------------------------
B |---------------------------------------- se toca
G |---------------------------------------- junto con el
D |-7-7-7-7-7-7-7-7-7-7-7-7-7-7-7-7-------- riff 1 q toca la
A |-7-7-7-7-7-7-7-7-7-7-7-7-7-7-7-7-------- guitarra 1
E |-5-5-5-5-5-5-5-5-5-5-5-5-5-5-5-5--------
    lagrimas, el lenguaje mudo de tu pena

F#5(x16)
e |-----------------------------------------
B |----------------------------------------- se toca
G |----------------------------------------- junto con el
D |-4-4-4-4-4-4-4-4-4-4-4-4-4-4-4-4--------- riff 2 q toca la
A |-4-4-4-4-4-4-4-4-4-4-4-4-4-4-4-4--------- guitarra 1
E |-2-2-2-2-2-2-2-2-2-2-2-2-2-2-2-2---------
    lagrimas, la callada voz de tu tristeza

B5(x16)
e |-----------------------------------------
B |----------------------------------------- se toca
G |----------------------------------------- junto con el
D |-9-9-9-9-9-9-9-9-9-9-9-9-9-9-9-9--------- riff 3 q toca la
A |-9-9-9-9-9-9-9-9-9-9-9-9-9-9-9-9--------- guitarra 1
E |-7-7-7-7-7-7-7-7-7-7-7-7-7-7-7-7---------
    lagrimas, la expresión mojada de tu alma

E5(x16)
e |-----------------------------------------
B |----------------------------------------- se toca
G |-9-9-9-9-9-9-9-9-9-9-9-9-9-9-9-9--------- junto con el
D |-9-9-9-9-9-9-9-9-9-9-9-9-9-9-9-9--------- riff 4 q toca la
A |-7-7-7-7-7-7-7-7-7-7-7-7-7-7-7-7--------- guitarra 1
E |-----------------------------------------
    lagrimas, la visible muestra de que me amas

lagrimas ..

Guitarra 1
e |------------------------|
B |------------------------|  Guitarra 1 y Guitarra 2 se
G |-4^---7/9--7------------|  tocan al mismo tiempo
D |--------------7/9-------|
A |------------------------|
E |------------------------|

Guitarra 2
   F5   D5/E5 D5 A5/B5
e |-------------------------|
B |-------------------------|
G |------7/9--7-------------|
D |-3----7/9--7--7/9--------|
A |-3----5/7--5--7/9--------|
E |-1------------5/7--------|

Guitarra 2
      A5(x6)   A5/G5 G5
e |----------------------
B |----------------------
G |----------------------  x4
D |-7-7-7-7-7-7-7/5--5---
A |-7-7-7-7-7-7-7/5--5---
E |-5-5-5-5-5-5-5/3--3---  la Guitarra 1 entra en el 2do
                           Tiempo de la guitarra 2

Guitarra 1
e |----------------------
B |----------------------
G |--6--4----------------
D |-------7--5-----------
A |----------------------
E |----------------------

     A5(x6)     A5/G5 G5  A5(x6)     A5/G5 G5  A5(x4)
e |------------------------------------------------------
B |------------------------------------------------------
G |------------------------------------------------------
D |--7-7-7-7-7-7-7/5--5---7-7-7-7-7-7-7/5--5---7-7-7-7---
A |--7-7-7-7-7-7-7/5--5---7-7-7-7-7-7-7/5--5---7-7-7-7---
E |--5-5-5-5-5-5-5/3--3---5-5-5-5-5-5-5/3--3---5-5-5-5---
     Yo siento hundirme    y me estremezco      si veo caer tus


D5(x8)
e |------------------------------------|
B |------------------------------------|
G |---7-7-7-7-7-7-7-7------------------|
D |---7-7-7-7-7-7-7-7------------------|
A |---5-5-5-5-5-5-5-5------------------|
E |------------------------------------|
      Lagrimas

E5(x20)
e -----------------------------------------------
B -----------------------------------------------
G --9-9-9-9-9-9-9-9-9-9-9-9-9-9-9-9-9-9-9-9------
D --9-9-9-9-9-9-9-9-9-9-9-9-9-9-9-9-9-9-9-9------
A --7-7-7-7-7-7-7-7-7-7-7-7-7-7-7-7-7-7-7-7------
E -----------------------------------------------
    Yo me arrepiento del mal que te haya hecho si veo caer tus

A5(x8)
e |----------------------|
B |----------------------|
G |----------------------|
D |-7-7-7-7-7-7-7-7------|
A |-7-7-7-7-7-7-7-7------|
E |-5-5-5-5-5-5-5-5------|
    Lagrimas

     A5(x6)     A5/G5 G5  A5(x6)     A5/G5 G5   A5(x4)
e |--------------------------------------------------------
B |--------------------------------------------------------
G |--------------------------------------------------------
D |--7-7-7-7-7-7-7/5--5---7-7-7-7-7-7-7/5--5---7-7-7-7-----
A |--7-7-7-7-7-7-7/5--5---7-7-7-7-7-7-7/5--5---7-7-7-7-----
E |--5-5-5-5-5-5-5/3--3---5-5-5-5-5-5-5/3--3---5-5-5-5-----
     Yo te consuelo        te abrazo y te beso  si veo caer tus

       D5(x8)                 A5(x4)    B5(x4)
e |-------------------------------------------------
B |-------------------------------------------------
G |-7-7-7-7-7-7-7-7---------------------------------
D |-7-7-7-7-7-7-7-7----------7-7-7-7---9-9-9-9------
A |-5-5-5-5-5-5-5-5----------7-7-7-7---9-9-9-9------
E |--------------------------5-5-5-5---7-7-7-7------
    Lágrimas y no quisiera ya nunca     volver a enjugar tus

E5(x16)
e |---------------------------------------|
B |---------------------------------------|
G |-9-9-9-9-9-9-9-9-9-9-9-9-9-9-9-9-------|
D |-9-9-9-9-9-9-9-9-9-9-9-9-9-9-9-9-------|
A |-7-7-7-7-7-7-7-7-7-7-7-7-7-7-7-7-------|
E |---------------------------------------|
    Lágrimas

Coro:

A5(x16)
e |----------------------------------------
B |---------------------------------------- se toca
G |---------------------------------------- junto con el
D |-7-7-7-7-7-7-7-7-7-7-7-7-7-7-7-7-------- riff 1 q toca la
A |-7-7-7-7-7-7-7-7-7-7-7-7-7-7-7-7-------- guitarra 1
E |-5-5-5-5-5-5-5-5-5-5-5-5-5-5-5-5--------
    lagrimas, el lenguaje mudo de tu pena

F#5(x16)
e |------------------------------------------
B |------------------------------------------ se toca
G |------------------------------------------ junto con el
D |-4-4-4-4-4-4-4-4-4-4-4-4-4-4-4-4---------- riff 2 q toca la
A |-4-4-4-4-4-4-4-4-4-4-4-4-4-4-4-4---------- guitarra 1
E |-2-2-2-2-2-2-2-2-2-2-2-2-2-2-2-2----------
    lagrimas, la callada voz de tu tristeza

B5(x16)
e |------------------------------------------
B |------------------------------------------ se toca
G |------------------------------------------ junto con el
D |-9-9-9-9-9-9-9-9-9-9-9-9-9-9-9-9---------- riff 3 q toca la
A |-9-9-9-9-9-9-9-9-9-9-9-9-9-9-9-9---------- guitarra 1
E |-7-7-7-7-7-7-7-7-7-7-7-7-7-7-7-7----------
    lagrimas, la expresión mojada de tu alma

E5(x16)
e |------------------------------------------
B |------------------------------------------ se toca
G |-9-9-9-9-9-9-9-9-9-9-9-9-9-9-9-9---------- junto con el
D |-9-9-9-9-9-9-9-9-9-9-9-9-9-9-9-9---------- riff 4 q toca la
A |-7-7-7-7-7-7-7-7-7-7-7-7-7-7-7-7---------- guitarra 1
E |------------------------------------------
    lagrimas, la visible muestra de que me amas

A5(x16)
e |-------------------------------------------
B |------------------------------------------- se toca
G |------------------------------------------- junto con el
D |-7-7-7-7-7-7-7-7-7-7-7-7-7-7-7-7----------- riff 1 q toca la
A |-7-7-7-7-7-7-7-7-7-7-7-7-7-7-7-7----------- guitarra 1
E |-5-5-5-5-5-5-5-5-5-5-5-5-5-5-5-5-----------
    lagrimas, de pasiones, ondas y de heridas

F#5(x16)
e |-------------------------------------------
B |------------------------------------------- se toca
G |------------------------------------------- junto con el
D |-4-4-4-4-4-4-4-4-4-4-4-4-4-4-4-4----------- riff 2 q toca la
A |-4-4-4-4-4-4-4-4-4-4-4-4-4-4-4-4----------- guitarra 1
E |-2-2-2-2-2-2-2-2-2-2-2-2-2-2-2-2-----------
    lagrimas, de dolor profundo y de alegrías

B5(x16)
e |--------------------------------------------
B |-------------------------------------------- se toca
G |-------------------------------------------- junto con el
D |-9-9-9-9-9-9-9-9-9-9-9-9-9-9-9-9------------ riff 3 q toca la
A |-9-9-9-9-9-9-9-9-9-9-9-9-9-9-9-9------------ guitarra 1
E |-7-7-7-7-7-7-7-7-7-7-7-7-7-7-7-7------------
    lagrimas, la palabra fiel de tu amargura

E5(x16)
e |--------------------------------------------
B |-------------------------------------------- se toca
G |-9-9-9-9-9-9-9-9-9-9-9-9-9-9-9-9------------ junto con el
D |-9-9-9-9-9-9-9-9-9-9-9-9-9-9-9-9------------ riff 4 q toca la
A |-7-7-7-7-7-7-7-7-7-7-7-7-7-7-7-7------------ guitarra 1
E |--------------------------------------------
    lagrimas, la verdad final que tu no ocultas

lagrimas.......

Guitarra 1 Estos riffs son para bajos elestricos
e |-----------------------------------------|
B |-----------------------------------------|
G |-----6---------6--------6--------6-------| riff 1
D |---7---7-----7---7----7---7----7---7-----|
A |-7---------7--------7--------7-----------|
E |-----------------------------------------|

e |-----------------------------------------|
B |-----------------------------------------|
G |-----6---------6--------6--------6-------| riff 2
D |---7---7-----7---7----7---7----7---7-----|
A |-6---------6--------6--------6-----------|
E |-----------------------------------------|

e |-----------------------------------------|
B |-----------------------------------------|
G |-----7---------7--------7--------7-------| riff 3
D |---7---7-----7---7----7---7----7---7-----|
A |-6---------6--------6--------6-----------|
E |-----------------------------------------|

e |-----------------------------------------|
B |-----------------------------------------|
G |-----7---------7--------7--------7-------| riff 4
D |---6---6-----6---6----6---6----6---6-----|
A |-7---------7--------7--------7-----------|
E |-----------------------------------------|


O también estos riffss q son para guitar eléctrica
usa cualquiera de los dos o el del bajo o el de
LA guitar eléctrica

e |-------9---------9---------9---------9-------|
B |----10---10---10---10---10---10---10---10----|
G |--9---------9---------9---------9------------| riff 1
D |---------------------------------------------|
A |---------------------------------------------|
E |---------------------------------------------|


e |-------9---------9---------9---------9-------|
B |----10---10---10---10---10---10---10---10----|
G |--8---------8---------8---------8------------| riff 2
D |---------------------------------------------|
A |---------------------------------------------|
E |---------------------------------------------|


e |-------10---------10---------10---------10-----|
B |----10----10---10----10---10----10---10----10--|
G |--8----------8----------8----------8-----------| riff 3
D |-----------------------------------------------|
A |-----------------------------------------------|
E |-----------------------------------------------|


e |-------10-------10-------10-------10---------|
B |-----9----9---9----9---9----9---9----9-------|
G |---9--------9--------9--------9--------------| riff 4
D |---------------------------------------------|
A |---------------------------------------------|
E |---------------------------------------------|

Guitarra 2

A5(x16)
e |------------------------------------------
B |------------------------------------------ se toca
G |------------------------------------------ junto con el
D |-7-7-7-7-7-7-7-7-7-7-7-7-7-7-7-7---------- riff 1
A |-7-7-7-7-7-7-7-7-7-7-7-7-7-7-7-7----------
E |-5-5-5-5-5-5-5-5-5-5-5-5-5-5-5-5----------
    Ahhhhhhhhhhhhhhhhhhhhhh

F#5(x16)
e |------------------------------------------
B |------------------------------------------ se toca
G |------------------------------------------ junto con el
D |-4-4-4-4-4-4-4-4-4-4-4-4-4-4-4-4---------- riff 2
A |-4-4-4-4-4-4-4-4-4-4-4-4-4-4-4-4----------
E |-2-2-2-2-2-2-2-2-2-2-2-2-2-2-2-2----------
    Ahhhhhhhhhhhhhhhhhhhhhhhh

B5(x16)
e |------------------------------------------
B |------------------------------------------ se toca
G |------------------------------------------ junto con el
D |-9-9-9-9-9-9-9-9-9-9-9-9-9-9-9-9---------- riff 3
A |-9-9-9-9-9-9-9-9-9-9-9-9-9-9-9-9----------
E |-7-7-7-7-7-7-7-7-7-7-7-7-7-7-7-7----------
    Ahhhhhhhhhhhhhhhhhhhhhh

E5(x16)
e |------------------------------------------
B |------------------------------------------ se toca
G |-9-9-9-9-9-9-9-9-9-9-9-9-9-9-9-9---------- junto con el
D |-9-9-9-9-9-9-9-9-9-9-9-9-9-9-9-9---------- riff 4
A |-7-7-7-7-7-7-7-7-7-7-7-7-7-7-7-7----------
E |------------------------------------------
    Ahhhhhhhhhhhhhhhhhhhh

A5(x16)
e |------------------------------------------
B |------------------------------------------ se toca
G |------------------------------------------ junto con el
D |-7-7-7-7-7-7-7-7-7-7-7-7-7-7-7-7---------- riff 1
A |-7-7-7-7-7-7-7-7-7-7-7-7-7-7-7-7----------
E |-5-5-5-5-5-5-5-5-5-5-5-5-5-5-5-5----------
    Uhhhhhhhhhhhhhhhh uhhhhh

F#5(x16)
e |-------------------------------------------
B |------------------------------------------- se toca
G |------------------------------------------- junto con el
D |-4-4-4-4-4-4-4-4-4-4-4-4-4-4-4-4----------- riff 2
A |-4-4-4-4-4-4-4-4-4-4-4-4-4-4-4-4-----------
E |-2-2-2-2-2-2-2-2-2-2-2-2-2-2-2-2-----------
    Uhhhhhhhhhhhhhhhhhhh ..............

Notas utilizadas en esta canción

                        6 5 4 3 2 1
                        E A D G B E
A5--------------        5 7 7 x x x
G5--------------        3 5 5 x x x
D5--------------        x 5 7 7 x x
E5--------------        x 7 9 9 x x
F#5-------------        2 4 4 x x x
B5--------------        7 9 9 x x x
F5--------------        1 3 3 x x x

Cualquier cosa q no entiendan avísenme a mi
correo tito_acuario_14@
O también para sacar músicas
Suggest correction
Creating personal tab
Creating personal tab
You can edit any tab online and save it as your Personal.

You can edit, replace or remove any tab part or add personal notes – all changes will be seen only by you.

Personal tabs can be accessed anytime from any device, even offline.
Learn more »
Give kudos to tab author, rate the tab!
1 2 3 4 5
comments
print report bad tab
guest
Wanna post a correction for this tab? Suggest correction