Oops, an error
Loading. Please wait.

Lágrimas tab

version 2
version 2

Whole song

47 views 1 this week
no commentswrite comment
1 2 3 4 5
3 more votes to show rating
add to favorites
×
Save as Personal and add changes to this tab that will be seen only by you. Learn more ›
×
You can save this tab as Personal to edit and correct it or add notes. All changes will be seen only by you. Learn more »
launch autoscroll
font size
0
reset
how to read this tab
guitar tuner
edit
Autoscroll
slow
fast
+/-
esc
set tempo
stop
Pastilla: Lagrimas
la    577xxx
sol   355xxx
re    x577xx
mi    022100
si    799xxx----x244xx (cualquiera de las dos formas)
fa#   244xxx
fa    133xxx
                   »» - se desliza la cuerda hasta el traste indicado


**ARREGLO 1**

1a-------9---------9---------9---------9-------
2a----10---10---10---10---10---10---10---10----
3a--9---------9---------9---------9------------
4a---------------------------------------------
5a---------------------------------------------
6a---------------------------------------------


1a-------7-------7-------9-------9-------------
2a-----7---7---7---7---7---7---7---7-----------
3a---9-------9-------9-------9-----------------
4a---------------------------------------------
5a---------------------------------------------
6a---------------------------------------------


1a-------7-------7-------9-------9-------------
2a-----7---7---7---7---7---7---7---7-----------
3a---7-------7-------7-------7-----------------
4a---------------------------------------------
5a---------------------------------------------
6a---------------------------------------------


1a---------------------------------------------
2a-------9-------9-------12-------12-----------
3a-----9---9---9---9---9----9---9----9---------
4a---9-------9-------9--------9----------------
5a---------------------------------------------
6a---------------------------------------------

**ARREGLO 2**
1a--------------------------------------------------
2a--------------------------------------------------
3a--5--5»»9--7--2»»4--2-----------------------------
4a----------------------------------11--9--7--5-----
5a--------------------------------------------------
6a--------------------------------------------------

LA    SOL    LA
SOL    LA

LA
Yo siento hundirme
SOL  LA
y me estremesco
SOL  LA              RE
     si veo caer tus lagrimas


MI
Yo me arrepiento del mal que haya hecho
                LA
si veo caer tus lagrimas
LA
Yo te consuelote abrazo y te beso
                RE
si veo caer tus lagrimas
LA
y no quisiera ya nunca
SI                 MI
volver a enjuagar tus lagrimas


CORO
(**ARREGLO 1**)

LA
Lagrimas
el lenguaje mudo de tu pena
FA#
lagrimas
la callada voz de tu tristeza
SI
lagrimas
la expresion mojada de tu alma
MI
lagrimas
la visible muestra de que me amas

(**ARREGLO 2**)
FA               SOL          LA
Lagrimas,  ahhh ahhh,   ahhh ahhh
LA
Yo siento hundirmey me estremesco
                RE
si veo caer tus lagrimas
MI
yo me arrepiento
del mal que haya hecho
LA
si veo caer tus lagrimas
LA
Yo te consuelote abrazo y te beso
RE
si veo caer tus lagrimas
                 LA
y no quisiera ya nunca
SI                 MI
volver a enjuagar tus lagrimas

CORO

(**ARREGLO 1**)
LA
Lagrimas
el lenguaje mudo de tu pena
FA#
lagrimasla callada voz de tu tristeza
SI
lagrimas
la expresion mojada de tu alma
MI
lagrimas
la visible muestra de que me amas
LA
Lagrimas
de pasiones hondas y de heridas
FA#
lagrimas
de dolor profundo y de alegrias
SI
lagrimas
la palabre fiel de tu amargura
MI
lagrimasla verdad final que tu no ocultas
LA

Lagrimas
          FA#         SI               MI
ahhh ahhh ah,  ah ah ahhh ahhh,  ah ah ahhhah ah
LA            FA#       SI      MI
uhhhhhh,  uhhhuhhuhh, uhhhh.......

Por Carlos Dominguez

            
            
Suggest correction
Creating personal tab
Creating personal tab
You can edit any tab online and save it as your Personal.

You can edit, replace or remove any tab part or add personal notes – all changes will be seen only by you.

Personal tabs can be accessed anytime from any device, even offline.
Learn more »
Give kudos to tab author, rate the tab!
1 2 3 4 5
comments
print report bad tab
guest
Wanna post a correction for this tab? Suggest correction