Oops, an error
Loading. Please wait.

Llévame De Aquí tab

20 views 1 this week
no commentswrite comment
1 2 3 4 5
3 more votes to show rating
add to favorites
×
Save as Personal and add changes to this tab that will be seen only by you. Learn more ›
×
You can save this tab as Personal to edit and correct it or add notes. All changes will be seen only by you. Learn more »
launch autoscroll
font size
0
reset
how to read this tab
guitar tuner
edit
Autoscroll
slow
fast
+/-
esc
set tempo
stop
Mi transcripción de la canción que no se exactamente de que disco sea
pero se las dejo aquí espero y les guste.....

Si alguien nota errores le pido de favor no se quede con el
conocimiento y haga la corrección.....

By: Escarabajo95

Am            Dm B/Dm
|-7-5-3-5-7-3-3/5-|
      Ah!!!
Am            Dm B/Dm
|-7-5-3-5-7-3-3/0---3/2-|


Am                 Dm B/Dm
Es difícil comprender
Am                Dm B/Dm
he perdido una mujer
Am              Dm B/Dm
es difícil olvidar
Am                 Dm B/Dm
esos labios que besé

   Dm                   Am
E|-7----------------------------------------------------|
A|-----------------------7-7------------7-7-------------|
G|---------------------------5-5-7-7-5-5----5-5-7-7-5-5-|
   Muerte llévame de aquí
   E7                 Am
E|-7------------------------------------------------|
A|----------------------7-7------------7-7-------------|
G|--------------------------5-5-7-7-5-5----5-5-7-7-5-5-|
   ella no me quiere ver
   Dm                   Am
E|-7-----------------------------------------------------|
A|------------------------7-7------------7-7-------------|
G|----------------------------5-5-7-7-5-5----5-5-7-7-5-5-|
   muerte llévame de aquí
E7                        Am
E|-7-------------------------------------------------------|
A|--------------------------7-7------------7-7-------------|
G|------------------------------5-5-7-7-5-5----5-5-7-7-5-5-|
   que ni mal quisiera hacer


Am                    Dm B/Dm
No es difícil comprender
Am                   Dm B/Dm
se ha alejado una mujer
Am                 Dm B/Dm
hoy sus ojos extrañé
Am                 Dm B/Dm
pero no me quieren ver

   Dm                   Am
E|-7----------------------------------------------------|
A|-----------------------7-7------------7-7-------------|
G|---------------------------5-5-7-7-5-5----5-5-7-7-5-5-|
   Muerte llévame de aquí
   E7                 Am
E|-7------------------------------------------------|
A|----------------------7-7------------7-7-------------|
G|--------------------------5-5-7-7-5-5----5-5-7-7-5-5-|
   ella no me quiere ver
   Dm                   Am
E|-7-----------------------------------------------------|
A|------------------------7-7------------7-7-------------|
G|----------------------------5-5-7-7-5-5----5-5-7-7-5-5-|
   muerte llévame de aquí
E7                        Am
E|-7------------------------------------------------------|
A|-------------------------7-7------------7-7-------------|
G|-----------------------------5-5-7-7-5-5----5-5-7-7-5-5-|
   que ni mal quisiera hacer.

D|-------------7---------------|
G|-5-5-7-7-5-5-----------------|

D|-------------7---------------|
G|-5-5-7-7-5-5-----------------|


D|-------------7-7---------|
G|-9-9-7-7-5-5-----------------|

D|-------------7-7---------|
G|-9-9-7-7-5-5-----------------|


D|-------12-12-10-10-7-7-----------|
G|-12-12---------------------|

D|-------12-12-10-10-7-7-----------|
G|-12-12---------------------|


D|-7-7-9-9---------------------7---|
G|---------5-5-7-7-9-9-7-7-5-5-----|

Bien cualquier duda síganme en:


Si no conocen la rola búsquenla en youtube ahí está y está muy fácil
sale haber cuando subo otra xD.....

Ah! se me olvidaba

La nota B/Dm no se si sea su nombre pero no se cual sea jojo.
son notas simples ni una es cejilla ok saludos.

 B/Dm
E|-x-|
A|-2-|
D|-0-|
G|-2-|
B|-3-|
E|-0-|

----------------------------------------------
Porque no es bonito estar lejos de ti...... :(

            
            
Suggest correction
Creating personal tab
Creating personal tab
You can edit any tab online and save it as your Personal.

You can edit, replace or remove any tab part or add personal notes – all changes will be seen only by you.

Personal tabs can be accessed anytime from any device, even offline.
Learn more »
Give kudos to tab author, rate the tab!
1 2 3 4 5
comments
print report bad tab
guest
Wanna post a correction for this tab? Suggest correction