Oops, an error
Loading. Please wait.

Ama A Quien Llora Por Tí chords

version 2
version 2

Whole song

73 views 3 this week
no commentswrite comment
1 2 3 4 5
3 more votes to show rating
add to favorites
×
Save as Personal and add changes to this tab that will be seen only by you. Learn more ›
×
You can save this tab as Personal to edit and correct it or add notes. All changes will be seen only by you. Learn more »
launch autoscroll
font size
0
reset
transpose
0
reset
simplify chords
display chords
guitar tuner
edit
Autoscroll
slow
fast
+/-
esc
set tempo
stop
Strumming
There is no strumming pattern for this song yet. and get +5 IQ
La guitarra esta afinada un tono más arriba, en Fa


Introducción
                              D/D4/D  A/A5/A9  E   /E5/E

E|-------0------------0-----|-2-3--2--0----3---0-0-----0-0-x-|
B|----------------------0---|-3-3--3--2----2---0-0-----0-0-x-|
G|-0h1-----1----0h1-------1-|-2-2--2--2-2------1-1-----1-1-x-|
D|-----------2------2-------|-0-0--0--2-2------2-2--2--2-2-x-|
A|------------------2-------|---------0-0------2-2--2--2-2-x-|
E|-----0------------0-------|------------------0-0--0--0-0-x-|


E|----------0----------------0-----|
B|------------0----------------0---|
G|-0h1-1-------------0h1-1---------|
D|-------2-------2---------2-----2-|
A|-------2-------2---------2-----2-|
E|-------0-------0---------0-----0-|


E|-2-3--2--0----3---0-0-----0-0-x-|
B|-3-3--3--2----2---0-0-----0-0-x-|
G|-2-2--2--2-2------1-1-----1-1-x-|
D|-0-0--0--2-2------2-2--2--2-2-x-|
A|---------0-0------2-2--2--2-2-x-|
E|------------------0-0--0--0-0-x-|


Verso

E                      A-D D-A       E
 Suavemente desparramado en algún cordón
                       A-D   D-A    E
 Con una quilmes al lado de mi corazón
                              A-D  D-A        E
 Un par de poemas reprimidos que ya no sirven más
                         D-A  A-E   E
 Que te aseguro nena el no te los va a dar


Estribillo

E
Y yo ahora se que no

A-D  D-A      E
no te importo nada

A-D  D-A      E
Pero algún día caerás a mi

   A-D  D-A               E
Por eso, no llores por quién no te ama

G          D A            E
Ama a quién llora por ti


Verso

E                         A-D     D-A      E
 En el interior de un bar también me podrás encontrar
                          A-D    D-A   E
 Ahogando penas en un vaso tratando de olvidar
                                   A-D      D-A    E
 Que le brindaste tus ojos, y el te hizo una herida profunda nena
                                        A-D       D-A              E
 Que mi guitarra no suena, esta triste y siempre adentro de su funda


 Y no la toco porque


Estribillo


A-D    D-A    E
No te importo nada

A-D       D-A    E
Pero algún día caerás a mí

A-D        D-A             E
Por eso no llores por quién no te ama

G         D            E
Ama a quién llora por ti

G         D              E
Ama, ama quién llora por ti

G    D                      E
Ama, ama a quién llora por ti


Punteo Final

   D                          D5
E|-2-3-2h3p2-3-3/5-3-2---------------2-3/5-3-5-3h5p3p0-------
B|-3-------------------3------3----3-------------------3h5p3-
G|-2---------------------2----2--2---------------------------
D|-0-----------------------0--0------------------------------
A|-----------------------------------------------------------
E|-----------------------------------------------------------


           E
E|--3------0--|
B|----5-3--0--|
G|---------1--|
D|---------2--|
A|---------2--|
E|---------0--|


Notas:

A-La       = 02220x
A9-La9     = 32220x
D-Re       = 2320xx
D4-Resus4  = 3320xx
E-Mi       = 001220
E5-Mi 5ta  = xxx220
G-Sol      = 300023

Muchas gracias por elegir este tab. Calificalo por favor

                                                            Rafa

            
            
Suggest correction
Creating personal tab
Creating personal tab
You can edit any tab online and save it as your Personal.

You can edit, replace or remove any tab part or add personal notes – all changes will be seen only by you.

Personal tabs can be accessed anytime from any device, even offline.
Learn more »
Give kudos to tab author, rate the tab!
1 2 3 4 5
comments
print report bad tab
guest
Wanna post a correction for this tab? Suggest correction