Oops, an error
Loading. Please wait.

Ama A Quien Llora Por Tí tab

version 3
version 3

Whole song

67 views 1 this week
no commentswrite comment
1 2 3 4 5
2 more votes to show rating
add to favorites
×
Save as Personal and add changes to this tab that will be seen only by you. Learn more ›
×
You can save this tab as Personal to edit and correct it or add notes. All changes will be seen only by you. Learn more »
launch autoscroll
font size
0
reset
how to read this tab
guitar tuner
edit
Autoscroll
slow
fast
+/-
esc
set tempo
stop
ACORDES

   E   D  Dsus4  A  A9   G
e:-0-|-2-|--3--|-0-|-0-|-3-|
B:-0-|-3-|--3--|-2-|-2-|-3-|
G:-1-|-2-|--2--|-2-|-0-|-0-|
D:-2-|-0-|--0--|-2-|-2-|-0-|
A:-2-|-x-|--x--|-0-|-0-|-2-|
E:-0-|-x-|--x--|-x-|-0-|-3-|

RASGUEO

   E*                         D4 D     A   A9    E
e:-----V-A-A-x-V-A-x-V-A-V-A---V-A-V---A-V-A-V---V-A-x-V-A-V-A--
B:-----V-A-A-x-V-A-x-V-A-V-A---V-A-V---A-V-A-V---V-A-x-V-A-V-A--
G:-0h1-V-A-A-x-V-A-x-V-A-V-A---V-A-V---A-V-A-V---V-A-x-V-A-V-A-- A = arriba
D:-----V-A-A-x-V-A-x-V-A-V-A---V-A-V---A-V-A-V---V-A-x-V-A-V-A-- V = abajo
A:-----V-A-A-x-V-A-x-V-A-V-A---x-x-x---A-V-A-V---V-A-x-V-A-V-A--
E:-----V-A-A-x-V-A-x-V-A-V-A---x-x-x---A-V-A-V---V-A-x-V-A-V-A--

INTRO

[ E* D-Dsus4 D A-A9 E ] x2

   E*
e:--------0-0-----------0-0---|---------0-0------------0-0---|
B:--------0-0-----------0-0---|---------0-0------------0-0---|
G:-0h1----1-1----0h1----1-1---|-0h1-1---1-1----0h1-1---1-1---|
D:------2-----2-------2-----2-|-------2-----2--------2-----2-|
A:------2-----2-------2-----2-|-------2-----2--------2-----2-|
E:------0-----0-------0-----0-|-------0-----0--------0-----0-|

E*                      D-D4  A      E
 Suavemente desparramado en algún cordón
E*                      D-D4    A  E
 con una Quilmes al lado de mi corazón,
E*                          D-D4        A      E
 un par de poemas reprimidos que ya no sirven más
E*                   D-D4     A         E
 que te aseguro nena él no te los va a dar.

E
 Y yo ahora se que no,
D-D4      A     E
 no te importo nada
 D-D4               A     E
 pero algún día caerás a mi
          D-D4                 A      E
 por eso, no llores por quién no te ama,
 G        D             E*
 ama a quién llora por ti.

[ E* D-Dsus4 D A-A9 E ] x2

E*                             D-D4        A       E
 En el interior de un bar también me podrás encontrar,
E*                         D-D4        A     E
 ahogando penas en un vaso, tratando de olvidar
E*                               D-D4           A      E
 que le brindaste tus ojos y él te hizo una herida profunda nena,
E*                                        D-D4            A     E
 que mi guitarra no suena, esta triste y siempre adentro de su funda

E
 y no la toco porque
D-D4      A     E
 No te importo nada
 D-D4               A     E
 pero algún día caerás a mí
          D-D4                 A      E
 por eso, no llores por quién no te ama,
 G        D             E*
 ama a quién llora por ti,
 G    D                      E*
 ama, ama a quién llora por ti,
 G    D                      E*
 ama, ama a quién llora por ti.

[ E* D-Dsus4 D A-A9 E E* D-Dsus4 D* ]

   D                                                                E
e:-2-3-2h3p2-3-3/5-3-2---------------2-3/5-3-5-3h5p3p0-------3------0-|
B:-3-------------------3------3----3-------------------3h5p3---5-3--0-|
G:-2---------------------2----2--2----------------------------------1-|
D:-0-----------------------0--0-------------------------------------2-|
A:------------------------------------------------------------------2-|
E:------------------------------------------------------------------0-|
Suggest correction
Creating personal tab
Creating personal tab
You can edit any tab online and save it as your Personal.

You can edit, replace or remove any tab part or add personal notes – all changes will be seen only by you.

Personal tabs can be accessed anytime from any device, even offline.
Learn more »
Give kudos to tab author, rate the tab!
1 2 3 4 5
comments
print report bad tab
guest
Wanna post a correction for this tab? Suggest correction