Oops, an error
Loading. Please wait.

Listas Sábanas tab

40 views 1 this week
no commentswrite comment
1 2 3 4 5
3 more votes to show rating
add to favorites
×
Save as Personal and add changes to this tab that will be seen only by you. Learn more ›
×
You can save this tab as Personal to edit and correct it or add notes. All changes will be seen only by you. Learn more »
launch autoscroll
font size
0
reset
how to read this tab
guitar tuner
edit
Autoscroll
slow
fast
+/-
esc
set tempo
stop
La canción repite esto todo el tiempo:

       DOm               SOL#              RE#               LA#
-----------------|-----------------|-----------------|-----------------
---4---4---4---4-|---4---4---4---4-|---8---8---8---8-|---6---6---6---6-
---5---5---5---5-|---5---5---5---5-|---8---8---8---8-|---7---7---7---7-
-----------------|-----------------|-----------------|-----------------
-3-------3-------|-----6-------6---|-6-------6-------|-----8-------8---
-----3-------3---|-4-------4-------|-----6-------6---|-6-------6-------


Yo la toco así (un semitono más abajo, para que tenga menos cejilla):

       SIm               SOL               RE                LA
-----------------|-----------------|---2---2---2---2-|---0---0---0---0-
---3---3---3---3-|---3---3---3---3-|---3---3---3---3-|---2---2---2---2-
---4---4---4---4-|---4---4---4---4-|-----------------|-----------------
-----------------|-----------------|-0-------0-------|-----2-------2---
-2-------2-------|-----5-------5---|-----0-------0---|-0-------0-------
-----2-------2---|-3-------3-------|-----------------|-----------------


Aquí la letra:

DOm                      SOL#
  Entrás al cuarto oscuro, el más oscuro que hay,
RE#                   LA#
  donde salta la ficha de todos los que sobran.
DOm                    SOL#
  Tranquilo y sin apuro te ponés a pensar,
RE#                        LA#
  no hay limonada, y chicha no es la mejor maniobra.

La televisión te da el poder
de manejar un pueblo.
Vos con tu ambición vas a joder
al que merece el cielo.

Imaginate a Moria teniendo que apelar
por el hambre en La Quiaca, "si querés llorar, llorá".
Zulma Faiad de senadora que vergüenza,
mirá Borocotó vendiendo la conciencia.

Y si querés alguien que te cuide el chanchito,
no lo dudés un segundo, votalo a Nito.
Qué es lo que está pasando en estos días,
en listas sábanas está el Turco García...

Y que no se nos ocurra decir que necesitamos
un político que tenga corazón...
porque se va a postular Piñón.

Pareciera ser que para legislar una nación
primero tenés que saber improvisar...
con Sancineto hay que estudiar.

Porque la televisión te da el poder
de manejar un pueblo.
Vos con tu ambición vas a joder
al que merece el cielo.

            
            
Suggest correction
Creating personal tab
Creating personal tab
You can edit any tab online and save it as your Personal.

You can edit, replace or remove any tab part or add personal notes – all changes will be seen only by you.

Personal tabs can be accessed anytime from any device, even offline.
Learn more »
Give kudos to tab author, rate the tab!
1 2 3 4 5
comments
print report bad tab
guest
Wanna post a correction for this tab? Suggest correction