Oops, an error
Loading. Please wait.

Sólo En Sueños bass

22 views 1 this week
no commentswrite comment
1 2 3 4 5
3 more votes to show rating
add to favorites
×
Save as Personal and add changes to this tab that will be seen only by you. Learn more ›
×
You can save this tab as Personal to edit and correct it or add notes. All changes will be seen only by you. Learn more »
launch autoscroll
font size
0
reset
guitar tuner
edit
Autoscroll
slow
fast
+/-
esc
set tempo
stop
Bueno esta es mi primer transcripcion y espero que les sirva a muchos.
la saque de puro oido y me suena perfecta
es la version en vivo q todos conocemos.

intro

G|------------------------------------------------------------------|
D|--------------------------------5-2-2-----------------------------|
A|-----2-3---5--3-2-0-------2-3------5-2-5-3-2-0--------------------|
E|-0-3----------------3-0-3-----------------------------------------|
                                  (rapido)

versos
G|------------------------------------------------------------------|
D|-----------------------------------5-2-2--------------------------|
A|-----2-3---5-5--3-2-0-------2-3-------5-2-5-3-2-0-----------------|
E|-0-3-----------------3-0-3----------------------------------------|
                                    (rapido)
y se repiten durante toda la cancion


estribillo
G|------------------------------------------------------------------|
D|------------------------------------------------------------------|
A|-----00-0----22-2-----33-3------5---------------------------------|
E|------------------------------------------------------------------|

solo de bajo
min 2.05
G|------------------------------16-14-12----12-14-1212-14-12--------|
D|-------14-14---14----14-12-------------14-------------------------|
A|-14-17---------------------14-------------------------------------|
E|------------------------------------------------------------------|

G|-14h16-14-12-16h17-16-14---------------12h14h12-------------------|
D|--------------------------14h12h14h12-----------------------------|
A|------------------------------------------------------------------|
E|------------------------------------------------------------------|

min 2.13
G|-12h14h16h19--17h16-14-12---------12-14h16-14-12------------------|
D|-------------------------14h12h14---------------14----------------|
A|------------------------------------------------------------------|
E|------------------------------------------------------------------|

G|-12h14-12h14h16h14-------9----------------------------------------|
D|-----------------------------------final--------------------------|
A|------------------------------------------------------------------|
E|------------------------------------------------------------------|

h: nota ligada ascendente y descendente
el solo esta perfecto y hay q tocarlo asi como esta
tiene q escuchar el tema para darse cuenta de las notas ligadas y para
ver como estan acomodados los versos.
cualquier duda avisen.
vamos las pastillas!! xD
Suggest correction
Creating personal tab
Creating personal tab
You can edit any tab online and save it as your Personal.

You can edit, replace or remove any tab part or add personal notes – all changes will be seen only by you.

Personal tabs can be accessed anytime from any device, even offline.
Learn more »
Give kudos to tab author, rate the tab!
1 2 3 4 5
comments
print report bad tab
guest
Wanna post a correction for this tab? Suggest correction